Iron Maiden

home > Iron Maiden

The Trooper Tab

Iron Maiden

Difficulty: nolevelnolevel

tuner correct add songbook print version text version save to e-mail
chordsukulelecavacokeyboardtabbassdrummharmonicsflute Guitar Pro
chords

The Trooper

Year: 2002 - Album: Death on the Road

  		INTRO  
         E5          D5           C5             D5 
|---------------------------------------------------------|  
|---------------------------------------------------------|  
|---------------------------------------------------------|  
|------------------------------------------------5--------|  
|--(7)--7--7-5-----5--5--5-3-----3--3--3-1-----5---5--7---|  
|--------------7-------------5-------------3--------------|  
|        E5           D5           C5            D5 
|---------------------------------------------------------|  
|---------------------------------------------------------|  
|---------------------------------------------------------|  
|--(5)--5--5-4-----4--4--4-2-0---2--2--2-0-----4-5-4--5---|  
|--------------7---------------------------3--------------|  
|---------------------------------------------------------| 
         E5           D5           C5            D5 
|---------------------------------------------------------|  
|---------------------------------------------------------|  
|---------------------------------------------------------|  
|------------------------------------------------5--------|  
|--(7)--7--7-5-----5--5--5-3-----3--3--3-1-----5---5--7---|  
|--------------7-------------5-------------3--------------|  
|        E5           D5           C5            D5 
|---------------------------------------------------------|  
|---------------------------------------------------------|  
|---------------------------------------------------------|  
|--(5)--5--5-4-----4--4--4-2-0---2--2--2-0-----4-5-4--5---|  
|--------------7---------------------------3--------------|  
|---------------------------------------------------------| 
         E5           D5           C5            D5 
|---------------------------------------------------------|  
|---------------------------------------------------------|  
|---------------------------------------------------------|  
|------------------------------------------------5--------|  
|--(7)--7--7-5-----5--5--5-3-----3--3--3-1-----5---5--7---|  
|--------------7-------------5-------------3--------------|  
|        E5           D5           C5            D5 
|---------------------------------------------------------|  
|---------------------------------------------------------|  
|---------------------------------------------------------|  
|--(5)--5--5-4-----4--4--4-2-0---2--2--2-0-----4-5-4--5---|  
|--------------7---------------------------3--------------|  
|---------------------------------------------------------| 
         E5           D5           C5            D5 
|---------------------------------------------------------|  
|---------------------------------------------------------|  
|---------------------------------------------------------|  
|------------------------------------------------5--------|  
|--(7)--7--7-5-----5--5--5-3-----3--3--3-1-----5---5--7---|  
|--------------7-------------5-------------3--------------|  
|        E5           D5           C5            D5 
|---------------------------------------------------------|  
|---------------------------------------------------------|  
|---------------------------------------------------------|  
|--(5)--5--5-4-----4--4--4-2-0---2--2--2-0-----4-5-4--5---|  
|--------------7---------------------------3--------------|  
|---------------------------------------------------------| 
 
 
MAIN RIFF:  
  
Repeat 2x  
 
                   E5                              D5 
|------------------7----------------------------------------|  
|--8--7h8p7h8p7h8-----8--7h8p7h8p7h8--8-----------8---------|  
|----------------------------------------9--9~--7---7--9~---|  
|-----------------------------------------------------------|  
|-----------------------------------------------------------|  
|-----------------------------------------------------------|  
|                                                  
|-----------------------------------------------------------|  
|-----------------------------------------------------------|  
|--------------------7--------------------------------------|  
|--9--7h9p7h9p7h9-----9--7h9p7h9p7h9--9---------------------|  
|---------------------------------------10-10~--9-10-9-10~--|  
|-----------------------------------------------------------| 
                   E5                              D5 
|------------------7----------------------------------------|  
|--8--7h8p7h8p7h8-----8--7h8p7h8p7h8--8-----------8---------|  
|----------------------------------------9--9~--7---7--9~---|  
|-----------------------------------------------------------|  
|-----------------------------------------------------------|  
|-----------------------------------------------------------|  
| 
|-----------------------------------------------------------|  
|-----------------------------------------------------------|  
|--------------------7--------------------------------------|  
|--9--7h9p7h9p7h9-----9--7h9p7h9p7h9--9---------------------|  
|---------------------------------------10-10~--9-10-9-10~--|  
|-----------------------------------------------------------| 
                   C5                              D5       
|------------------7----------------------------------------|  
|--8--7h8p7h8p7h8-----8--7h8p7h8p7h8--8-----------8---------|  
|----------------------------------------9--9~--7---7--9~---|  
|-----------------------------------------------------------|  
|-----------------------------------------------------------|  
|-----------------------------------------------------------|  
|                                                  
|-----------------------------------------------------------|  
|-----------------------------------------------------------|  
|--------------------7--------------------------------------|  
|--9--7h9p7h9p7h9-----9--7h9p7h9p7h9--9---------------------|  
|---------------------------------------10-10~--9-10-9-10~--|  
|-----------------------------------------------------------| 
                   E5                              D5 
|------------------7----------------------------------------|  
|--8--7h8p7h8p7h8-----8--7h8p7h8p7h8--8-----------8---------|  
|----------------------------------------9--9~--7---7--9~---|  
|-----------------------------------------------------------|  
|-----------------------------------------------------------|  
|-----------------------------------------------------------|  
| 
|-----------------------------------------------------------|  
|-----------------------------------------------------------|  
|--------------------7--------------------------------------|  
|--9--7h9p7h9p7h9-----9--7h9p7h9p7h9--9---------------------|  
|---------------------------------------10-10~--9-10-9-10~--|  
|-----------------------------------------------------------|   
 
 
 
E5                                      D5  
You'll take my life but i'll take yours too  
E5                                          D5 
You'll fire your musket but i'll run you through  
C5                                   D5  
So when you're waiting for the next attack  
E5                                      D5  
You'd better stand there's no turning back.  
E5                                 D5  
The bugle sounds and the charge begins  
E5                              D5  
But on this battlefield no one wins  
C5                                    D5  
The smell of acrid smoke and horses breath  
E5                          D5  
As i plunge on into certain death.  
D5                    E5 
Oh oh oh oh oh oh oh oh oh  
D5                      E5   
Oh oh oh oh oh oh oh oh oh 
 
 
Repeat 2x  
 
                   E5                              D5 
|------------------7----------------------------------------|  
|--8--7h8p7h8p7h8-----8--7h8p7h8p7h8--8-----------8---------|  
|----------------------------------------9--9~--7---7--9~---|  
|-----------------------------------------------------------|  
|-----------------------------------------------------------|  
|-----------------------------------------------------------|  
|                                                  
|-----------------------------------------------------------|  
|-----------------------------------------------------------|  
|--------------------7--------------------------------------|  
|--9--7h9p7h9p7h9-----9--7h9p7h9p7h9--9---------------------|  
|---------------------------------------10-10~--9-10-9-10~--|  
|-----------------------------------------------------------| 
                   E5                              D5 
|------------------7----------------------------------------|  
|--8--7h8p7h8p7h8-----8--7h8p7h8p7h8--8-----------8---------|  
|----------------------------------------9--9~--7---7--9~---|  
|-----------------------------------------------------------|  
|-----------------------------------------------------------|  
|-----------------------------------------------------------|  
| 
|-----------------------------------------------------------|  
|-----------------------------------------------------------|  
|--------------------7--------------------------------------|  
|--9--7h9p7h9p7h9-----9--7h9p7h9p7h9--9---------------------|  
|---------------------------------------10-10~--9-10-9-10~--|  
|-----------------------------------------------------------| 
                   C5                              D5       
|------------------7----------------------------------------|  
|--8--7h8p7h8p7h8-----8--7h8p7h8p7h8--8-----------8---------|  
|----------------------------------------9--9~--7---7--9~---|  
|-----------------------------------------------------------|  
|-----------------------------------------------------------|  
|-----------------------------------------------------------|  
|                                                  
|-----------------------------------------------------------|  
|-----------------------------------------------------------|  
|--------------------7--------------------------------------|  
|--9--7h9p7h9p7h9-----9--7h9p7h9p7h9--9---------------------|  
|---------------------------------------10-10~--9-10-9-10~--|  
|-----------------------------------------------------------| 
                   E5                              D5 
|------------------7----------------------------------------|  
|--8--7h8p7h8p7h8-----8--7h8p7h8p7h8--8-----------8---------|  
|----------------------------------------9--9~--7---7--9~---|  
|-----------------------------------------------------------|  
|-----------------------------------------------------------|  
|-----------------------------------------------------------|  
| 
|-----------------------------------------------------------|  
|-----------------------------------------------------------|  
|--------------------7--------------------------------------|  
|--9--7h9p7h9p7h9-----9--7h9p7h9p7h9--9---------------------|  
|---------------------------------------10-10~--9-10-9-10~--|  
|-----------------------------------------------------------|  
 
 
  
E5                                        D5  
The horse he sweats with fear we break to run  
E5                             D5  
The mighty roar of the russian guns  
C5                               D5  
And as we race towards the human wall  
E5                                   D5  
The screams of pain as my comrades fall  
E5                                  D5  
We hurdle bodies that lay on the ground  
E5                              D5  
And the russians fire another round  
C5                         D5 
We get so near yet so far away  
E5                             D5 
We won't live to fight another day. 
D5                    E5  
Oh oh oh oh oh oh oh oh oh  
D5                      E5    
Oh oh oh oh oh oh oh oh oh 
 
 
Solo 1: Adrian Smith  
   E5                             D5  
|------------12--------12--------------------------|  
|--15b(17)---15b(17)---15b(17)--r15--12---15~~~----|  
|--------------------------------------------------|  
|--------------------------------------------------|  
|--------------------------------------------------|  
|--------------------------------------------------|  
  
           B5                                   C5        D5  
|------15b(17)~-----15--12-----------------------------------|  
|--12--------------------------------------------------------|  
|---------------------------15--14--12-----------------------|  
|---------------------------------------14b(16)-r14--12------|  
|--------------------------------------------------------14--|  
|------------------------------------------------------------|  
  
        E5                                              D5  
|----------------------------------------------------------------|  
|--------------12--15-----------12--15----------12--15-----------|  
|--14---b(16)----------14b(16)----------14b(16)---------14b(16)--|  
|----------------------------------------------------------------|  
|----------------------------------------------------------------|  
|----------------------------------------------------------------|  
  
  
|-----------------------------------------------------------------|  
|--12--15----------12--15----------12--15----------12--15---------|  
|----------14b(16)---------14b(16)---------14b(16)--------14b(16)-|  
|-----------------------------------------------------------------|  
|-----------------------------------------------------------------|  
|-----------------------------------------------------------------|  
  
   B5  
|---------------------------------------------------------|  
|--12--15----------12--15----------12--15---------12--15--|  
|----------14b(16)---------14b(16)--------14b(16)---------|  
|---------------------------------------------------------|  
|---------------------------------------------------------|  
|---------------------------------------------------------|  
  
                     C5          D5      E5  
|-----------------------------------------15--19p15--17p15------|  
|-------------------------------------/17-------------------17--|  
|--14----15--14--12--14--14--12~-------------------------------|  
|---------------------------------------------------------------|  
|---------------------------------------------------------------|  
|---------------------------------------------------------------|  
  
                                    D5  
|---15--19p15--17p15-----15--19p15--17p15----15--19p15--17p15--|  
|---------------------17------------------17-------------------|  
|--------------------------------------------------------------|  
|--------------------------------------------------------------|  
|--------------------------------------------------------------|  
|--------------------------------------------------------------|  
  
                              B5  
|-----15--19p15--17p15----15--19p15--17p15------15--19p15--17p15--|  
|--17------------------17-------------------17--------------------|  
|-----------------------------------------------------------------|  
|-----------------------------------------------------------------|  
|-----------------------------------------------------------------|  
|-----------------------------------------------------------------|  
                                               D5  
                     C5   *With harmony(see end of post)  
|-------20b(22)--20b(22)--20b(22)--20b(22)r20--20b(22)r20--|  
|---14-----------------------------------------------------|  
|----------------------------------------------------------|  
|----------------------------------------------------------|  
|----------------------------------------------------------|  
|----------------------------------------------------------|  
                                                  D5  
                     E5                         Harmony ends *  
|--20b(22)r20--20b(22)-----19--20--17--19-----17----------------|  
|------------------------------------------20-----19h20--17~~--|  
|---------------------------------------------------------------|  
|---------------------------------------------------------------|  
|---------------------------------------------------------------|  
|---------------------------------------------------------------|  
  
   B5                                  C5                  D5  
|----------12----------12-----------------------------------------|  
|------12------15b(17)-----15--12---------------------------------|  
|--/14-----------------------------14b(16)r14--12--14--12---------|  
|-----------------------------------------------------------------|  
|----------------------------------------------------------14~~---|  
|-----------------------------------------------------------------|  
  
  
Solo 2: Dave Murray  
  (D5)   A5                                  G5  
|--------5h8p5h8p5h8p5h8p5----------------------------------|  
|--5h8----------------------8p5h8p5h8p5h8p5-----------------|  
|--------------------------------------------7b(9)-(9)r(8)--|  
|-----------------------------------------------------------|  
|-----------------------------------------------------------|  
|-----------------------------------------------------------|  
  
            E5                      F5   G5  
|----------------------------------------------------|  
|-----------------------------------------------5h7--|  
|--7--6--5-----6--5----------------------------------|  
|-----------7--------7-------------------------------|  
|-----------------------6--5-------------------------|  
|-----------------------------8--5~~-----------------|  
  
   A5                                G5  
|--------------5h7p5h7p5h7----------------5h7p5h7p5/7--8p7h8p7--|  
|--5h7p5h7p5-----------------5h7p5h7p6h8------------------------|  
|---------------------------------------------------------------|  
|---------------------------------------------------------------|  
|---------------------------------------------------------------|  
|---------------------------------------------------------------|  
  
             E5                                  F5  
|----7---10b(12)--10b(12)--10b(12)--(12)r10--8--10~~--8--|  
|--10-----------------------------------------------------|  
|---------------------------------------------------------|  
|---------------------------------------------------------|  
|---------------------------------------------------------|  
|---------------------------------------------------------|  
  
   G5                          A5  
|-----12-----------12--15--12--15--12--12-----------12------|  
|-/15-----15b(17)--------------------------15b(17)------15--|  
|-----------------------------------------------------------|  
|-----------------------------------------------------------|  
|-----------------------------------------------------------|  
|-----------------------------------------------------------|  
  
                                  G5  
|---------------------------------10h12p10------------------------|  
|--13--12--13--12--12---------/10-----------10--13b(15)-HOLD BEND-|  
|-----------------------------------------------------------------|  
|-----------------------------------------------------------------|  
|-----------------------------------------------------------------|  
|-----------------------------------------------------------------|  
  
                E5             F5      G5  
|-----------------------------------------|  
|--(15)5/---NH---T-bar-------------------|  
|------------12---(9)-/-----17b(19)~~~--|  
|-----------------------------------------|  
|-----------------------------------------|  
|-----------------------------------------|  
  
                  A5                                    G5  
|--------------------------------------------------20b(22)-(22)r20-|  
|-----------------------------20b(22)--(22)r20--17-----------------|  
|--/17--19b(21)--(21)r19--17---------------------------------------|  
|------------------------------------------------------------------|  
|------------------------------------------------------------------|  
|------------------------------------------------------------------|  
  
          E5  
|--17-------------------20b(22)--20--19--17-----------------------|  
|-----20b(22)-------17----------------------20b(22)---------------|  
|---------------------------------------------------20b(23)-r(21)-|  
|-----------------------------------------------------------------|  
|-----------------------------------------------------------------|  
|-----------------------------------------------------------------|  
  
   F5             D5 G5 D5  
|--------------------------|  
|--1715-------------------|  
|---------17--17--14--14--|  
|--------------------------|  
|--------------------------|  
|--------------------------|  
  
Harmony for Solo 1:  
  
|--14b(15)--14b(15)r14--14b(15)r14--14b(15)r14--14b(15)--|  
|--------------------------------------------------------|  
|--------------------------------------------------------|  
|--------------------------------------------------------|  
|--------------------------------------------------------|  
|--------------------------------------------------------|  
  
  
|--12--14-----12----------------------|  
|----------15----13--15--12h13--------|  
|-------------------------------14~~--|  
|-------------------------------------|  
|-------------------------------------|  
|-------------------------------------| 
 
 
Solo end 
 
 
Repeat 2x  
 
                   E5                              D5 
|------------------7----------------------------------------|  
|--8--7h8p7h8p7h8-----8--7h8p7h8p7h8--8-----------8---------|  
|----------------------------------------9--9~--7---7--9~---|  
|-----------------------------------------------------------|  
|-----------------------------------------------------------|  
|-----------------------------------------------------------|  
|                                                  
|-----------------------------------------------------------|  
|-----------------------------------------------------------|  
|--------------------7--------------------------------------|  
|--9--7h9p7h9p7h9-----9--7h9p7h9p7h9--9---------------------|  
|---------------------------------------10-10~--9-10-9-10~--|  
|-----------------------------------------------------------| 
                   E5                              D5 
|------------------7----------------------------------------|  
|--8--7h8p7h8p7h8-----8--7h8p7h8p7h8--8-----------8---------|  
|----------------------------------------9--9~--7---7--9~---|  
|-----------------------------------------------------------|  
|-----------------------------------------------------------|  
|-----------------------------------------------------------|  
| 
|-----------------------------------------------------------|  
|-----------------------------------------------------------|  
|--------------------7--------------------------------------|  
|--9--7h9p7h9p7h9-----9--7h9p7h9p7h9--9---------------------|  
|---------------------------------------10-10~--9-10-9-10~--|  
|-----------------------------------------------------------| 
                   C5                              D5       
|------------------7----------------------------------------|  
|--8--7h8p7h8p7h8-----8--7h8p7h8p7h8--8-----------8---------|  
|----------------------------------------9--9~--7---7--9~---|  
|-----------------------------------------------------------|  
|-----------------------------------------------------------|  
|-----------------------------------------------------------|  
|                                                  
|-----------------------------------------------------------|  
|-----------------------------------------------------------|  
|--------------------7--------------------------------------|  
|--9--7h9p7h9p7h9-----9--7h9p7h9p7h9--9---------------------|  
|---------------------------------------10-10~--9-10-9-10~--|  
|-----------------------------------------------------------| 
                   E5                              D5 
|------------------7----------------------------------------|  
|--8--7h8p7h8p7h8-----8--7h8p7h8p7h8--8-----------8---------|  
|----------------------------------------9--9~--7---7--9~---|  
|-----------------------------------------------------------|  
|-----------------------------------------------------------|  
|-----------------------------------------------------------|  
| 
|-----------------------------------------------------------|  
|-----------------------------------------------------------|  
|--------------------7--------------------------------------|  
|--9--7h9p7h9p7h9-----9--7h9p7h9p7h9--9---------------------|  
|---------------------------------------10-10~--9-10-9-10~--|  
|-----------------------------------------------------------|   
 
  
E5                              D5 
We get so close near enough to fight  
E5                            D5 
When a russian gets me in his sights  
C5                                  D5 
He pulls the trigger and i feel the blow  
E5                               D5 
A burst of rounds take my horse below.  
E5                              D5 
And as i lay there gazing at the sky  
E5                              D5 
My body's numb and my throat is dry  
C5                           D5 
And as i lay forgotten and alone  
E5                              D5 
Without a tear i draw my parting groan  
D5                     E5  
Oh oh oh oh oh oh oh oh oh  
D5                     E5    
Oh oh oh oh oh oh oh oh oh 
 
 
         E5           D5           C5            D5 
|---------------------------------------------------------|  
|---------------------------------------------------------|  
|---------------------------------------------------------|  
|------------------------------------------------5--------|  
|--(7)--7--7-5-----5--5--5-3-----3--3--3-1-----5---5--7---|  
|--------------7-------------5-------------3--------------|  
|        E5           D5           C5            D5 
|---------------------------------------------------------|  
|---------------------------------------------------------|  
|---------------------------------------------------------|  
|--(5)--5--5-4-----4--4--4-2-0---2--2--2-0-----4-5-4--5---|  
|--------------7---------------------------3--------------|  
|---------------------------------------------------------| 
         E5           D5           C5            D5 
|---------------------------------------------------------|  
|---------------------------------------------------------|  
|---------------------------------------------------------|  
|------------------------------------------------5--------|  
|--(7)--7--7-5-----5--5--5-3-----3--3--3-1-----5---5--7---|  
|--------------7-------------5-------------3--------------|  
|        E5           D5           C5            D5 
|---------------------------------------------------------|  
|---------------------------------------------------------|  
|---------------------------------------------------------|  
|--(5)--5--5-4-----4--4--4-2-0---2--2--2-0-----4-5-4--5---|  
|--------------7---------------------------3--------------|  
|---------------------------------------------------------| 
         E5           D5           C5            D5 
|---------------------------------------------------------|  
|---------------------------------------------------------|  
|---------------------------------------------------------|  
|------------------------------------------------5--------|  
|--(7)--7--7-5-----5--5--5-3-----3--3--3-1-----5---5--7---|  
|--------------7-------------5-------------3--------------|  
|        E5           D5           C5            D5 
|---------------------------------------------------------|  
|---------------------------------------------------------|  
|---------------------------------------------------------|  
|--(5)--5--5-4-----4--4--4-2-0---2--2--2-0-----4-5-4--5---|  
|--------------7---------------------------3--------------|  
|---------------------------------------------------------| 
         E5           D5           C5            D5 
|---------------------------------------------------------|  
|---------------------------------------------------------|  
|---------------------------------------------------------|  
|------------------------------------------------5--------|  
|--(7)--7--7-5-----5--5--5-3-----3--3--3-1-----5---5--7---|  
|--------------7-------------5-------------3--------------|  
|        E5           D5           C5            D5 
|---------------------------------------------------------|  
|---------------------------------------------------------|  
|---------------------------------------------------------|  
|--(5)--5--5-4-----4--4--4-2-0---2--2--2-0-----4-5-4--5---|  
|--------------7---------------------------3--------------|  
|---------------------------------------------------------| 

	  

Full key step upFull key step up
Half key step upHalf key step up
Half key step downHalf key step down
Full key step downFull key step down
Search Paypal
auto scroll beats size up size down change color hide chords drawings
tab show chords e-chords YouTube Clip e-chords hide all tabs e-chords go to top tab