Iron Maiden

home > Iron Maiden

Childhood's End Tab

Iron Maiden

Difficulty: BeginnerBeginner

by wickedman

tuner correct add songbook print version text version save to e-mail
chordsukulelecavacokeyboardtabbassdrumsharmonicsflute Guitar Pro
chords

Childhood's End

Year: 2002 - Album: Fear of the Dark

  		Introdução 
 
             F#m                                              D 
|---------|---------------------|---------------------------|-----------------------|--------------------------------| 
|---------|--------10p9---------|------------10p9---12-10p9-|----------10p9---------|------------10p9---12-12-10p9---| 
|---------|-----11------9----11-|-(11)----11------9---------|-11----11------9----11-|-(11)----11------9--------------| 
|---------|--11-----------11----|------11-------------------|----11-----------11----|------11------------------------| 
|---------|---------------------|---------------------------|-----------------------|--------------------------------| 
|---------|---------------------|---------------------------|-----------------------|--------------------------------| 
 
 
  E                                                   Bm                     C#m 
|-----------------------|---------------------------|----------------------|------------------------| 
|----------10p9---------|------------10p9---12-10p9-|---------10p9---------|------------10p9--------| 
|-11----11------9----11-|-(11)----11------9---------|-9----11------9----11-|-(11)----11------9------| 
|----11-----------11----|------11-------------------|---11-----------11----|------11-----------11---| 
|-----------------------|---------------------------|----------------------|------------------------| 
|-----------------------|---------------------------|----------------------|------------------------| 
 
 
Riff 1 
 
    F#m                                         A                                           E 
||--------------------|-----------------------|-------------------|-----------------------|--------------------| 
||o------12-(12)--14--|-(14)-12---14-12-12-14-|------12-(12)--14--|-(14)-12---14-12-12-14-|-----12-(12)--14----| 
||--11----------------|-----------------------|-------------------|-----------------------|-9------------------| 
||--------------------|-----------------------|-14----------------|-----------------------|--------------------| 
||o-------------------|-----------------------|-------------------|-----------------------|--------------------| 
||--------------------|-----------------------|-------------------|-----------------------|--------------------| 
 
 
                         1.                                           2. 
                          Bm            E                              Bm            C#m 
|-----------------------|-------------------|--------------------9--||-------------------|-----------------------| 
|-(14)-12---14-12-12-14-|------12-(12)--14--|-(14)-12---14-12-12---o||------12-(12)--14--|-(14)-12---14-12-12-14-| 
|-----------------------|-------------------|-----------------------||-11----------------|-----------------------| 
|-----------------------|-12----------------|-----------------------||-------------------|-----------------------| 
|-----------------------|-------------------|----------------------o||-------------------|-----------------------| 
|-----------------------|-------------------|-----------------------||-------------------|-----------------------| 
 
 
Riff 2 
 
  F#m                                A 
|-----------------|----------------|-----------------|----------------| 
|-----------------|----------------|-----------------|----------------| 
|-----------------|----------------|-----------------|----------------| 
|-4-----4-----4---|---4-----4-4-4--|-7-----7-----7---|---7-----7-7-7--| 
|-4-----4-----4---|---4-----4-4-4--|-7-----7-----7---|---7-----7-7-7--| 
|---2-2---2-2---2-|-2---2-2--------|---5-5---5-5---5-|-5---5-5--------| 
 
  E                                  D           E 
|-----------------|----------------|-----------------|----------------| 
|-----------------|----------------|-----------------|----------------| 
|-----------------|----------------|-----------------|----------------| 
|-9-----9-----9---|---9-----9-9-9--|-7-----7-----9---|---9-----9-9-9--| 
|-7-----7-----7---|---7-----7-7-7--|-5-5-5-5-5-5-7-7-|-7-7-7-7-7-7-7--| 
|---0-0---0-0---0-|-0---0-0--------|-----------------|----------------| 
 
  F#m                                A 
|-----------------|----------------|-----------------|----------------| 
|-----------------|----------------|-----------------|----------------| 
|-----------------|----------------|-----------------|----------------| 
|-4-----4-----4---|---4-----4-4-4--|-7-----7-----7---|---7-----7-7-7--| 
|-4-----4-----4---|---4-----4-4-4--|-7-----7-----7---|---7-----7-7-7--| 
|---2-2---2-2---2-|-2---2-2--------|---5-5---5-5---5-|-5---5-5--------| 
 
  E                                  Bm          C#m 
|-----------------|----------------|-----------------|----------------| 
|-----------------|----------------|-----------------|----------------| 
|-----------------|----------------|-----------------|----------------| 
|-9-----9-----9---|---9-----9-9-9--|-4-----4-----6---|---6-----6-6-6--| 
|-7-----7-----7---|---7-----7-7-7--|-2-2-2-2-2-2-4-4-|-4-4-4-4-4-4-4--| 
|---0-0---0-0---0-|-0---0-0--------|-----------------|----------------| 
 
 
 
Verso 1: sobre Riff 2 
 
    F#m 
I'd sail across the ocean 
    A 
I'd walk a hundred miles 
   E 
If I could make it to the end 
   D              E 
Oh just to see a smile 
 
 
    F#m 
You see it in their faces 
    A 
The sadness in their tears 
    E 
The desperation and the anger 
Bm              C#m 
Madness and the fear 
 
 
 
Refrão: sobre Riff 1 
 
   F#m      A          E        D    E 
No hope, no life, just pain and fear 
   F#m      A          E        Bm   C#m 
No food, no love, just greed is here 
 
 
 
Verso 2: sobre Riff 2 
 
    F#m 
Starvation and the hunger 
    A 
The suffering and the pain 
    E 
The agonies of all-out war 
     D             E 
When will it come again? 
 
 
     F#m 
The struggle for the power 
  A 
A tyrant tries again 
     E 
Just what the hell is going on? 
     Bm           C#m 
When will it ever end? 
 
 
 
Refrão: sobre Riff 1 
 
   F#m      A          E        D    E 
No hope, no life, just pain and fear 
   F#m      A          E        Bm   C#m 
No food, no love, just greed is here 
 
 
Nota: neste segunda vez, a última nota do último compasso do Riff 1 muda. 
 
|-----------------------| 
|-(14)-12---14-12-12----| 
|--------------------11-| 
|-----------------------| 
|-----------------------| 
|-----------------------| ...então começa o interlúdio. 
                           
 
Interlúdio 
 
  F#m                                              D                                                     E 
|-------------------------|---------------------------|-------------------------|---------------------------| 
|------------10p9---------|------------10p=9----------|------------10p9---------|------------10p=9----------| 
|-(11)----11------9----11-|-(11)----11--------9----11-|-(11)----11------9----11-|-(11)----11--------9----11-| 
|------11-----------11----|------11-------------11----|------11-----------11----|------11-------------11----| 
|-------------------------|---------------------------|-------------------------|---------------------------| 
|-------------------------|---------------------------|-------------------------|---------------------------| 
 
 
                                                  Bm                          C#m                          F#m 
|-------------------------|---------------------------|---------------------------|---------------------------| 
|------------10p9---------|------------10p=9----------|------------10p=9----------|------------10p=9----------| 
|-(11)----11------9----11-|-(11)----11--------9----11-|-(11)----11--------9----11-|-(11)----11--------9----11-| 
|------11-----------11----|------11-------------11----|------11-------------11----|------11-------------11----| 
|-------------------------|---------------------------|---------------------------|---------------------------| 
|-------------------------|---------------------------|---------------------------|---------------------------| 
 
 
                                                      D                                                    E 
||--------------------------|---------------------------|-------------------------|----------------------------| 
||o------------10p9---------|------------10p=9----------|------------10p9---------|------------10p=9-----------| 
||--(11)----11------9----11-|-(11)----11--------9----11-|-(11)----11------9----11-|-(11)----11--------9----11--| 
||-------11-----------11----|------11-------------11----|------11-----------11----|------11-------------11-----| 
||o-------------------------|---------------------------|-------------------------|----------------------------| 
||--------------------------|---------------------------|-------------------------|----------------------------| 
 
 
                                                                          1.                   2. 
|-------------------------|--------------------------|-------------------|-------------------||-----------------| 
|------------10p9---------|------------10p=9---------|-------------------|------------------o||-----------------| 
|-(11)----11------9----11-|-(11)----11--------9------|-------------------|---------------11--||-----------------| 
|------11-----------11----|------11-------------11---|-------------------|-4---4-6-7-6-7-----||-4---4-6-7-6-7---| 
|-------------------------|--------------------------|---------4-5-4-5-7-|---7--------------o||---7-------------| 
|-------------------------|------------------------7-|-(7)-5-7-----------|-------------------||-----------------| 
 
 
 
Guitar Solo 
 
 
Interlúdio 2 
 
 
||---------------------|-----------------|--------------------|-9----------------| 
||o------------------9-|-10--9-----------|-10----(10)---10-12-|----12-10-9-------| 
||--11----(11)----11---|-------11-9------|------------9-------|-------------11---| 
||-------------11------|-------------11--|--------------------|------------------| 
||o--------------------|-----------------|--------------------|------------------| 
||---------------------|-----------------|--------------------|------------------| 
 
 
 
|-12--10-9-------|---------------------|-12b14------12-10-|-9-----------------|| 
|----------12----|-(12)--9-10-12-10-9--|------------------|-----12-(12)--10--o|| 
|----------------|---------------------|------------------|-------------------|| 
|----------------|---------------------|------------------|-------------------|| 
|----------------|---------------------|------------------|------------------o|| 
|----------------|---------------------|------------------|-------------------|| 
 
 
 
Verso 3: sobre Riff 2 
 
    F#m 
You see the full moon float 
    A 
You watch the red sun rise 
   E 
We take these things for granted 
    D                   E 
But somewhere someone's dying 
 
 
   F#m 
Contaminated waters 
    A 
Pollution and decay 
     E 
Just waiting for disease to strike 
    Bm            C#m 
Oh, Will we learn someday? 
 
 
 
Refrão: sobre Riff 1 
 
   F#m      A          E        D    E 
No hope, no life, just pain and fear 
   F#m      A          E       E    E      F#m 
No food, no love, just seed... Childhood's end! 

	  

Full key step upFull key step up
Half key step upHalf key step up
Half key step downHalf key step down
Full key step downFull key step down
Search Paypal
auto scroll beats size up size down change color hide chords drawings
tab show chords e-chords YouTube Clip e-chords hide all tabs e-chords go to top tab