Iron Maiden

home > Iron Maiden

The Number Of The Beast Tab

Iron Maiden

Difficulty: ExpertExpert

by Baquit

tuner correct add songbook print version text version save to e-mail
chordsukulelecavacokeyboardtabbassdrummharmonicsflute Guitar Pro
chords

The Number Of The Beast

Year: 2001 - Album: Death on the Road

  		Intro

|-------------------------------------
|-------------------------------------
|-------------------------------------
|--------4-4-5-5--7-----7-----7-----7-
|--5-5-5----------5-5-5-5-5-5-5-5-5-5-
|-------------------------------------

Riff 1

|-------------------------------------
|-------------------------------------
|-------------------------------------
|--------4-4-5-5--7-----7-----7-----7-
|----5-5----------5-5-5-5-5-5-5-5-5-5-
|-------------------------------------

Riff 2
|-------------------------------------
|-------------------------------------
|-------------------------------------
|------2-2-3-3-5-----5-----5-----5----
|--3-3---------3-3-3-3-3-3-3-3-3-3----
|-------------------------------------


Riff 3

|-----------------------------------------------|
|-----------------------------------------------|
|-----------------------------------------------|
|-7-7-7-7--7-7-7-7-7--7--5-5-5-5--5--7-7-7-7--7-|
|-5-5-5-5--5-5-5-5-5--5--3-3-3-3--3--5-5-5-5--5-|
|-----------------------------------------------|



Riff 4

|-------------------------------------
|-------------------------------------
|-------------------------------------
|--7-----7-----7-----7-7-7-7-7-7-7----
|--5-5-5-5-5-5-5-5-5-5-5-5-5-5-5-5----
|-------------------------------------


Riff 5


|-------------------------
|-------------------------
|-------------------------
|--5-5-5-5-5-5-5-7-7-7-7--
|--3-3-3-3-3-3-3-5-5-5-5--
|-------------------------

Riff 6

|-----------------------------------------------------------------------------------------------------------
|-----------------------------------------------------------------------------------------------------------
|-----------------------------------------------------------------------------------------------------------
|--5-5-5-5-5-5-5--4-4-4-4-4-4-4--5-5-5-5-5-5-5--7-7-7-7-7-7-7--5-5-5-5-5-5-5--4-4-4-4-4-4-4--5-5-5-5-5-5-5--
|--3-3-3-3-3-3-3--2-2-2-2-2-2-2--3-3-3-3-3-3-3--5-5-5-5-5-5-5--3-3-3-3-3-3-3--2-2-2-2-2-2-2--3-3-3-3-3-3-3--
|-----------------------------------------------------------------------------------------------------------


Riff 7 repeat 3 times

E-----------------------------------------------------
B-----------------------------------------------------
G--2-2-2-4--2--4-4-4--5--4--5-5-5--7-5---7-7-7--9--7--
D--0-0-0-0--0--0-0-0--0--0--0-0-0--0-0---0-0-0--7--0--
A-----------------------------------------------------
E-----------------------------------------------------

Solo


Solo Murray

Murray solo Tabbed by: Stephan E. Tillmann
Email: [email protected]

-10h13p10---------------------------------------------------------------------
----------11p10-11b13r11-11-10h11p10/8h10p8h10p8/6h8p6h8p6/5------------------
------------------------------------------------------------------------------
------------------------------------------------------------------------------
------------------------------------------------------------------------------
------------------------------------------------------------------------------
                                                                              

------------------------------------------------------------------------------
-----15h17p15h17p15h17p15h18p15h18p15h18p15h17p15p17p15h17p15--18b20----------
-16--------------------------------------------------------------------------
------------------------------------------------------------------------------
------------------------------------------------------------------------------
------------------------------------------------------------------------------
                                                                              

------------------------------------------------------------------------------
-18b20r18b20r18----15h17p15h17p15h18p15/13h15p13h15p13h17p13/11h13p11h13p11---
------------------------------------------------------------------------------
------------------------------------------------------------------------------
------------------------------------------------------------------------------
------------------------------------------------------------------------------
                                                                              

------------------------------------------------------------------------------
-10h11p10/8h10p8/6h8p6/5h6p5------------------15-13h15p1315h17p15h17p15-----
-----------------------------7p5p0--------------------------------------------
-----------------------------------5b6r5--------------------------------------
------------------------------------------------------------------------------
------------------------------------------------------------------------------
                                                                              

----------------------------------20b22-20b22r20b22/--------------------------
-18p17p15-20b22-20b22r20b22r20p18---------------------------------------------
------------------------------------------------------------------------------
------------------------------------------------------------------------------
------------------------------------------------------------------------------
------------------------------------------------------------------------------
                                                                           

 <---------3x--------->
|----------------------|------------------------------
|----------------------|------------------------------
|----------------------|------------------------------
|--4-4-4--4------------|--4-4-4--4--7-7-7-7-7-7-7--5--
|--2-2-2--2--3-3-3--3--|--2-2-2--2--5-5-5-5-5-5-5--3--
|------------1-1-1--1--|------------------------------



|--------------------------------------------------------------------------------------|
|--------------------------------------------------------------------------------------|
|--------------------------------------------------------------------------------------|
|----12----10----------------------3-3-3--2------8-----6----------------------5-5-5-3--|
|-12----12----12-10-8-10-----------5-5-5--4---8-----8-----8--6-----6----------5-5-5-3--|
|------------------------12-10-8-------------------------------9-----8--6--4--3-3-3-1--|



|-----------------------------------------------------
|-----------------------------------------------------
|--------------------------------------------5-5-5----
|--3-3-3-3-3-3-3-3-3-3-5-5-5-5-5-5-5-7-7-7---5-5-5----
|--3-3-3-3-3-3-3-3-3-3-5-5-5-5-5-5-5-7-7-7---3-3-3----
|--1-1-1-1-1-1-1-1-1-1-3-3-3-3-3-3-3-5-5-5------------


solo smith


Smith Solo tabbed by: André Gardel Aquill
E-mail: [email protected]


  <---4x---->
e:-----8-8-8---------------------------------------------------------
b:-12b----------12b-(12)-----10--------------------------------------
g:---------------------------10-------------------12~~~~~~-----------
d:-----------------------12------12--10------------------------------
a:---------------------------------------12-11-10--------------------
e:-------------------------------------------------------------------


e:-----------------10-13-10------8-10-12-10b----10-------------------
b:-10-13b-13b-13b-----------11b--------------13-----13h10----13h10---
g:--------------------------------------------------------12---------
d:-------------------------------------------------------------------
a:-------------------------------------------------------------------
e:-------------------------------------------------------------------

                                   __4 x__     __7 x__
e:-------------------------------------------------------------------
b:-------------12b--(12)-10----------15-18--------18-------18b~~~~---
g:-12-10--------------------12----17---------17b------17b------------
d:--------12---------------------------------------------------------
a:-------------------------------------------------------------------
e:-------------------------------------------------------------------


e:------15-17------------17-15-------------20b--20b--(20)------------
b:-18b--------18-15-18b---------18-15-18b------------------18--------
g:-------------------------------------------------------------19~~~-
d:-------------------------------------------------------------------
a:-------------------------------------------------------------------
e:-------------------------------------------------------------------



|---------------------------------------------
|---------------------------------------------
|--7-7-7-7-7---------------------------5-5-5--
|--7-7-7-7-7-3-3-3-3-3-5-5-5-5-5-7-7-7-5-5-5--
|--5-5-5-5-5-3-3-3-3-3-5-5-5-5-5-7-7-7-3-3-3--
|------------1-1-1-1-1-3-3-3-3-3-5-5-5--------



|---------------------------------------------
|---------------------------------------------
|--7-7-7-7-7---------------------------5-5-5--
|--7-7-7-7-7-3-3-3-3-3-5-5-5-5-5-7-7-7-5-5-5--
|--5-5-5-5-5-3-3-3-3-3-5-5-5-5-5-7-7-7-3-3-3--
|------------1-1-1-1-1-3-3-3-3-3-5-5-5--------



Riff 8

|-----------------------------------------------------
|-----------------------------------------------------
|-----------------------------------------------------
|-7-7-7-7--7-7-7-7-7--7--5-5-5-5--5--7-7-7-7--7-5-7---
|-5-5-5-5--5-5-5-5-5--5--3-3-3-3--3--5-5-5-5--5-3-5---
|-----------------------------------------------------





Woe to you, Oh Earth and Sea,
for the Devil sends the beast with wrath,
because he knows the time is short...
"Let him who hath understanding reckon 
the number of the beast for it is a human number,
its number is Six hundred and sixty six."
(Revelations, ch. XIII, v.18)




Intro

riff 1     riff 1
I left alone my mind was blank

riff 2
I needed time to think,

riff 1
to get the memories from my mind

riff 1       riff 1
What did I see can I believe

riff 2
that what I saw that night was real

riff 1
and not just fantasy? 

riff 1         riff 1
Just what I saw in my old dreams

riff 1
Were the reflections of my warped mind

riff 2
staring back at me

riff 1         riff 1
Cos in my dreams it's always there

riff 2                  riff 1
The evil face that twists my mind


and brings me to despair


riff 3


riff 4
The night was black was no use holding back


Cos I just had to see

riff 5
was someone watching me

riff 4
In the mist dark figures move and twist


Was all this for real

riff 5
or just some kind of hell



riff 6
666 the Number of the Beast
Hell and fire was spawned to be released


riff 4
Torches blazed and sacred chants were praised


As they start to cry

riff 5
hands held to the sky

riff 4
In the night the fires burning bright


The ritual has begun

riff 5
Satan's work is done



riff 6
666 the Number of the Beast
Sacrifice is going on tonight




(Solo)




riff 4
This can't go on I must inform the law

                          riff 5
Can this still be real or some crazy dream

riff 4
But I feel drawn towards


the evil chanting hordes


They seem to mesmerise me...

riff 5
can't avoid their eyes




riff 6
666 the Number of the Beast
666 the one for you and me




riff 1
I'm coming back I will return

riff 2                   riff 1
And I'll possess your body and I'll make you burn

riff 1
I have the fire I have the force

riff 2
I have the power to make

riff 1
My evil take its course



riff 8




	  

Search Paypal
auto scroll beats size up size down change color hide chords drawings
tab show chords e-chords YouTube Clip e-chords hide all tabs e-chords go to top tab