Bruce Dickinson

home > Bruce Dickinson

Tears Of The Dragon Solo Tab

Bruce Dickinson

Difficulty: ExpertExpert

by victor%2Eh

tuner correct add songbook print version text version save to e-mail
chordsukulelecavacokeyboardtabbassdrumsharmonicsflute Guitar Pro
chords

Tears Of The Dragon Solo

	  Esse é o solo  da Tears Of The Dragon. 
Contato: Fórum do cifras.com.br, victor.h. 

---------------------------------------------------- 
---------------------------------------------------- 
---------------------------------------------------- 
-2-----2/7-10~-----10/-------9-7~--7/9-9-9---------- 
-0--------7-----------------7-7-----------7-7~------ 
---------------------------------------------------- 

----------------------------------------------------- 
--------8-10-8-8------------------------------------- 
-----7-9------9-9-8-9-7b9-----5b7-----7b9-----5b7---- 
-7-10--------------------7p5-7-----------7p5-7------- 
----------------------------------------------------- 
----------------------------------------------------- 

------------------------------------------------------- 
-5-6-6h8-6-5-6-5-----------------A.H------------------- 
----------------7-7/9~---7b9-----5b7----7b9-----5b7---- 
----------------------------7p5-7----------7p5-7------- 
------------------------------------------------------- 
------------------------------------------------------- 

------------------------------------------------------------- 
-8b10-----5-8p5-5-8p5-5-8p5-5-8p5-5-8p5-5-8p5-5-------------- 
---------------7-----7-----7-----7-----7-----7-7-5------5---- 
--------------------------------------------------5-7-------- 
------------------------------------------------------------- 
------------------------------------------------------------- 

------------------------------------------------------ 
----------------------------------------------8------- 
------------------------5--7p5----5----5-7-7b9-7b9---- 
------------------3--5-7------7----7------------------ 
-0-2-3--5-3-2--3-5------------------------------------ 
------------------------------------------------------ 

----------5---5---8-5------------------------------------- 
-8b10------8-8-5-8---5-8-10~----10-12-13~----12-10-12~---- 
---------------------------------------------------------- 
---------------------------------------------------------- 
---------------------------------------------------------- 
---------------------------------------------------------- 

---------------------------------15-------15-------15------- 
-10-12-12h13-12-13-15-13-15-15b17--15b17----15b17----15b17-- 
------------------------------------------------------------ 
------------------------------------------------------------ 
------------------------------------------------------------ 
------------------------------------------------------------ 

-15------------------17------20-17--20-17--20-17-----17--------- 
---15b17----20b22-------22-17-----17-----17-----17-17--17-17-17- 
---------------------------------------------------------------- 
---------------------------------------------------------------- 
---------------------------------------------------------------- 
---------------------------------------------------------------- 

-20b22---(repete os bends)-19-20-19-17-19---- 
--------------------------------------------- 
--------------------------------------------- 
--------------------------------------------- 
--------------------------------------------- 
--------------------------------------------- 

--------5----------------------------------------- 
---------8p5-5-8p5-5------------------------------ 
-7b9--------7-----7-7-5-7p5-5-7b9-5-7p5-5-----5--- 
---------------------------7-----------7-7-5-7---- 
-------------------------------------------------- 
-------------------------------------------------- 

--------------------------------------------------12-----12-13-12---- 
--10-12-13-12-13-15-13-15-17-----12-13-15-12-13-15--13-15------------ 
-9-----------------------------14------------------------------------ 
--------------------------------------------------------------------- 
--------------------------------------------------------------------- 
--------------------------------------------------------------------- 

---------12-----12-13--12-13-15-12----13-15-15h17-15-17- 
-12-13-15--13-15-----15--------------------------------- 
-------------------------------------------------------- 
-------------------------------------------------------- 
-------------------------------------------------------- 
-------------------------------------------------------- 

-19-17-19b21-19b21-19b21-19b21----20b22-------- 
----------------------------------------------- 
----------------------------------------------- 
----------------------------------------------- 
----------------------------------------------- 
----------------------------------------------- 

-22b24-22b24-22b24-22b24-22b24-22b24-22b24-22-20-22---- 
------------------------------------------------------- 
------------------------------------------------------- 
------------------------------------------------------- 
------------------------------------------------------- 
------------------------------------------------------- 



------------------------------15-17--15b17------- 
---13-15-15b17-13-----13-----------17------------ 
-14--------------14-14--------------------------- 
------------------------------------------------- 
------------------------------------------------- 
------------------------------------------------- 

-----------------------------------15------------- 
---13-15-15b17-13-----13------15b17--15b17-------- 
-14--------------14-14---------------------------- 
-------------------------------------------------- 
-------------------------------------------------- 
-------------------------------------------------- 

--------------------------------------------------------------------- 
---13--13-15b17-13-15b17-13-----13-----5-8p5-5-8p5-5----------------- 
-14--14--------------------14-14------7-----7-----7-7-5-7p5-5-------- 
-----------------------------------------------------------7---7----- 
--------------------------------------------------------------------- 
--------------------------------------------------------------------- 
	  

there isn't a video lesson for this song

request
Search
auto scroll beats size up size down change color hide chords drawings
tab show chords e-chords YouTube Clip e-chords hide all tabs e-chords go to top tab