Iron Maiden

home > Iron Maiden

Women In Uniform Tab

Iron Maiden

Difficulty: AdvancedAdvanced

by victor%2Eh

tuner correct add songbook print version text version save to e-mail
chordsukulelecavacokeyboardtabbassdrumsharmonicsflute Guitar Pro
chords

Women In Uniform

  		iron maiden 
 
women in uniform 
 
tabbed by sveinung 
[email protected] 
 
 
e:-------------------------------------------------------| 
B:-------------------------------------------------------| 
G:-------------------------------------------------------| 
D:-9-----------11-----------12---------------11----------| 
A:-7--7-7-7-7--9---9-9-9-9--10--10-10-10-10--9--9-9-9-9--| 
E:----0-0-0-0------0-0-0-0------0--0--0--0------0-0-0-0--| 
 
 
e:----------------------------| 
B:----------------------------| 
G:----------------------------| 
D:-11p9-11p9------------------| 
A:-----------12-10-9h10-12-10-| 
E:----------------------------| 
 
 
e:---------------------| 
B:---------------------| 
G:-6p4-6p4-------------| 
D:---------7-6-4h5-7-5-| 
A:---------------------| 
E:---------------------| 
 
e:-------------------------------------------------------| 
B:-------------------------------------------------------| 
G:-------------------------------------------------------| 
D:-9-----------11-----------12---------------11----------| 
A:-7--7-7-7-7--9---9-9-9-9--10--10-10-10-10--9--9-9-9-9--| 
E:----0-0-0-0------0-0-0-0------0--0--0--0------0-0-0-0--| 
 
e:-------------------------------------------------------| 
B:-------------------------------------------------------| 
G:-------------------------------------------------------| 
D:-9-----------11-----------12---------------11----------| 
A:-7--7-7-7-7--9---9-9-9-9--10--10-10-10-10--9--9-9-9-9--| 
E:----0-0-0-0------0-0-0-0------0--0--0--0------0-0-0-0--| 
 
 
:----------------------------| 
:----------------------------| 
:-9-9--9-9/11-11-9-9--6-6--4-| 
:-7-7--7-7/9--9--7-7--4-4--2-| 
:------0-0-------0-0---------| 
:----------------------------| 
 
:----------------------------| 
:----------------------------| 
:-9-9--9-9/11-11-9-9--6-6--4-| 
:-7-7--7-7/9--9--7-7--4-4--2-| 
:------0-0-------0-0---------| 
:----------------------------| 
 
e:-------------------------------------------------------| 
B:-------------------------------------------------------| 
G:-------------------------------------------------------| 
D:-9-----------11-----------12---------------11----------| 
A:-7--7-7-7-7--9---9-9-9-9--10--10-10-10-10--9--9-9-9-9--| 
E:----0-0-0-0------0-0-0-0------0--0--0--0------0-0-0-0--| 
 
e:-------------------------------------------------------| 
B:-------------------------------------------------------| 
G:-------------------------------------------------------| 
D:-9-----------11-----------12---------------11----------| 
A:-7--7-7-7-7--9---9-9-9-9--10--10-10-10-10--9--9-9-9-9--| 
E:----0-0-0-0------0-0-0-0------0--0--0--0------0-0-0-0--| 
 
 
e:--------------------------------------| 
B:--------------------------------------| 
G:--------------------------------------| 
D:--------------------------------------| 
A:-9-9-9-9-9--5-5-5-5-5--12-12-12-12-12-| 
E:-7-7-7-7-7--3-3-3-3-3--10-10-10-10-10-| 
 
e:------------| 
B:------------| 
G:------------| 
D:------------| 
A:-7-7-7-7-7--| 
E:-5-5-5-5-5--| 
 
:----------------------------| 
:----------------------------| 
:----------------------------| 
:----------------------------| 
:-12-12-12-12-12-12-12-12-12-| 
:-10-10-10-10-10-10-10-10-10-| 
 
e:---------------------------------                                          
B:-------------------------------------------------------| 
G:-17b-15b--11b--7p5-7b--17b-15b--19b--19-19-19-19-19----| 
D:-------------------------------------------------------| 
A:-------------------------------------------------------| 
E:-------------------------------------------------------| 
  
4x 
:----------------------------| 
:----------------------------| 
:-9-9--9-9/11-11-9-9--6-6--4-| 
:-7-7--7-7/9--9--7-7--4-4--2-| 
:------0-0-------0-0---------| 
:----------------------------| 
 
e:-------------------------------------------------------| 
B:-------------------------------------------------------| 
G:-------------------------------------------------------| 
D:-9-----------11-----------12---------------11----------| 
A:-7--7-7-7-7--9---9-9-9-9--10--10-10-10-10--9--9-9-9-9--| 
E:----0-0-0-0------0-0-0-0------0--0--0--0------0-0-0-0--| 
 
e:-------------------------------------------------------| 
B:-------------------------------------------------------| 
G:-------------------------------------------------------| 
D:-9-----------11-----------12---------------11----------| 
A:-7--7-7-7-7--9---9-9-9-9--10--10-10-10-10--9--9-9-9-9--| 
E:----0-0-0-0------0-0-0-0------0--0--0--0------0-0-0-0--| 
 
 
:----------------------------| 
:----------------------------| 
:-9-9--9-9/11-11-9-9--6-6--4-| 
:-7-7--7-7/9--9--7-7--4-4--2-| 
:------0-0-------0-0---------| 
:----------------------------| 
 
:----------------------------| 
:----------------------------| 
:-9-9--9-9/11-11-9-9--6-6--4-| 
:-7-7--7-7/9--9--7-7--4-4--2-| 
:------0-0-------0-0---------| 
:----------------------------| 
 
e:------------------------| 
B:------------------------| 
G:------------------------| 
D:-9-9-9-9-9-9-9-9-9-9-9--| 
A:-7-7-7-7-7-7-7-7-7-7-7--| 
E:------------------------| 
 
:-------------------------------------| 
:-------------------------------------| 
:-15-14-12-14--12-10-12--10-9-10--9-7-| 
:-------------------------------------| 
:-------------------------------------| 
:-------------------------------------| 
 
e:------------------------| 
B:------------------------| 
G:------------------------| 
D:-9-9-9-9-9-9-9-9-9-9-9--| 
A:-7-7-7-7-7-7-7-7-7-7-7--| 
E:------------------------| 
 
e:----------------------------------------------------| 
B:-11p10----13p10----11p10----13p10----11p10-12-10-12-| 
G:-------12-------12-------12-------12----------------| 
D:----------------------------------------------------| 
A:----------------------------------------------------| 
E:----------------------------------------------------| 
 
e:------------------------| 
B:------------------------| 
G:------------------------| 
D:-9-9-9-9-9-9-9-9-9-9-9--| 
A:-7-7-7-7-7-7-7-7-7-7-7--| 
E:------------------------| 
 
e:----------------------19~~~\-| 
B:-19bf-19~~~--17-15-17--------| 
G:-----------------------------| 
D:-----------------------------| 
A:-----------------------------| 
E:-----------------------------| 
 
e:------------------------| 
B:------------------------| 
G:------------------------| 
D:-9-9-9-9-9-9-9-9-9-9-9--| 
A:-7-7-7-7-7-7-7-7-7-7-7--| 
E:------------------------| 
 
:----------------------------------------------| 
:----------------------------------------------| 
:----------------------------------------------| 
:-0-0-0-0--4-4-4--7-7-7--10-10-10-9-9-7-7-7--4-| 
:----------------------------------------------| 
:----------------------------------------------| 
 
gt1 
e:----------------------------| 
B:----------------------------| 
G:----------------------------| 
D:-11p9-11p9------------------| 
A:-----------12-10-9h10-12-10-| 
E:----------------------------| 
 
gt2 
e:---------------------| 
B:---------------------| 
G:-6p4-6p4-------------| 
D:---------7-6-4h5-7-5-| 
A:---------------------| 
E:---------------------| 
 
:----------------------------| 
:----------------------------| 
:-9-9--9-9/11-11-9-9--6-6--4-| 
:-7-7--7-7/9--9--7-7--4-4--2-| 
:------0-0-------0-0---------| 
:----------------------------| 
 
:----------------------------| 
:----------------------------| 
:-9-9--9-9/11-11-9-9--6-6--4-| 
:-7-7--7-7/9--9--7-7--4-4--2-| 
:------0-0-------0-0---------| 
:----------------------------| 
 
e:---------------------------------------------| 
B:---------------------------------------------| 
G:-9-9--9-9--11-11-11------9-9-9-9-9-9-9-9-9-9-| 
D:-7-7--7-7--9--9--9--7-7--7-7-7-7-7-7-7-7-7-7-| 
A:-0-0--0-0------------------------------------| 
E:---------------------------------------------| 
 
 
e:---------------------------------------------------------| 
B:-17bf~~~~--17b-17b--17-15----17bf~~~~--17b-17b--17-15----| 
G:--------------------------16--------------------------16-| 
D:---------------------------------------------------------| 
A:---------------------------------------------------------| 
E:---------------------------------------------------------| 
 
e:---------------------------------------------| 
B:---------------------------------------------| 
G:-9-9--9-9--11-11-11------9-9-9-9-9-9-9-9-9-9-| 
D:-7-7--7-7--9--9--9--7-7--7-7-7-7-7-7-7-7-7-7-| 
A:-0-0--0-0------------------------------------| 
E:---------------------------------------------| 
 
 
e:-------------------------------------------------------------------------- 
b:-21b~~~~-----21b~~~~--21b-21b------------------18-20b--20b--18--20--18---- 
g:---------20-------------------20b-20-18-20-----18-20b--20b--18--20--18---- 
d:--------------------------------------------20-------------------------20- 
a:-------------------------------------------------------------------------- 
E:-------------------------------------------------------------------------- 
 
e:---------------------------------------------| 
B:---------------------------------------------| 
G:-9-9--9-9--11-11-11------9-9-9-9-9-9-9-9-9-9-| 
D:-7-7--7-7--9--9--9--7-7--7-7-7-7-7-7-7-7-7-7-| 
A:-0-0--0-0------------------------------------| 
E:---------------------------------------------| 
 
e:-------------------------------------------------------| 
B:-21b~~~~----------21b~~~~------21b~~~~-----21b~~~------| 
G:---------20b~~~~----------20b----------20b--------20b--| 
D:-------------------------------------------------------| 
A:-------------------------------------------------------| 
E:-------------------------------------------------------| 
 
e:---------------------------------------------| 
B:---------------------------------------------| 
G:-9-9--9-9--11-11-11------9-9-9-9-9-9-9-9-9-9-| 
D:-7-7--7-7--9--9--9--7-7--7-7-7-7-7-7-7-7-7-7-| 
A:-0-0--0-0------------------------------------| 
E:---------------------------------------------| 
 
e:-20b-20b-20b-20b-20p17---------| 
B:-----------------------20~~~~--| 
G:-------------------------------| 
D:-------------------------------| 
A:-------------------------------| 
E:-------------------------------| 
 
e:---------------------------------------------| 
B:---------------------------------------------| 
G:-9-9--9-9--11-11-11------9-9-9-9-9-9-9-9-9-9-| 
D:-7-7--7-7--9--9--9--7-7--7-7-7-7-7-7-7-7-7-7-| 
A:-0-0--0-0------------------------------------| 
E:---------------------------------------------| 
  
  
 

	  

Search Paypal
auto scroll beats size up size down change color hide chords drawings
tab show chords e-chords YouTube Clip e-chords hide all tabs e-chords go to top tab