Iron Maiden

home > Iron Maiden

Wasting Love Bass Tab

Iron Maiden

Difficulty: AdvancedAdvanced

by Sibox

tuner correct add songbook print version text version save to e-mail
chordsukulelecavacokeyboardtabbassdrummharmonicsflute Guitar Pro
chords

Wasting Love

Year: 1998 - Album: Fear of the Dark

(Bruce Dickinson/ Janick Gers)

	  Wasting Love 
Iron Maiden 
Intro: 4x 
 
G---------------------4---------------------------------- 
D----------------------7-5-4-5-4------------------------- 
A--7-7-3-3-3-3-5-5-5-5----------7-2---------------------- 
E-------------------------------------------------------- 
 
Começa a música: 1ª Parte 
 
G------------7-9-9\12-12/9-7-7p9-7-9-7------------------- 
D-------------------------------------9-7-9-------------- 
A-------------------------------------------------------- 
E------------------------------------------0------------- 
 
Maybe one day I'll be an honest man 
Up till now I'm doing the best I can 
 
Long roads, long days, of sunrise, to sunset 
Sunrise to sunset  
 
G------------------------------------------------------- 
D------------------------------------------------------- 
A--------------0---------------------------------------- 
E-------------------------------------0----------------- 
 
Refrão: 
 
G-------------------------------------------------------- 
D-------------------------------------------------------- 
A------3-3-5-5------------------------------------------- 
E---0-0-------3-3-1-1------------------------------------ 
 
G-------------------------------------------------------- 
D-------------------------------------------------------- 
A------3-3-5-5------------------------------------------- 
E---0-0-------3-3-3-3-2-2-2-2---------------------------- 
 
G-------------------------------------------------------- 
D-------------------------------------------------------- 
A------3-3-5-5----2-2------------------------------------ 
E---0-0-------3-3---------------------------------------- 
 
G-------------------------------------------------------- 
D-------------------------------------------------------- 
A------3-3-5--------------------------------------------- 
E---0-0-------------------------------------------------- 
 
G-------------------------------------------------------- 
D-------------------------------------------------------- 
A------5-3-5-3--7---------------------------------------- 
E-------------0------------------------------------------ 
 
G-------------------------------------------------------- 
D-------------------------------------------------------- 
A------5-3-5-3---7--------------------------------------- 
E-------------0-0---------------------------------------- 
 
G-------------------------------------------------------- 
D-------------------------------------------------------- 
A------5-3-5-3------------------------------------------- 
E-------------0------------------------------------------ 
 
2ª parte: 
 
Dream on brother, while you can 
Dream on sister, I hope you find the one 
All of our lives covered up quickly by the tides of time 
 
Sands are flowing and the lines are in your hand 
 
G------------------------------------------------------- 
D------------------------------------------------------- 
A--------------0---------------------------------------- 
E------------------------------------------------------- 
 
In your eyes I see the hunger 
And the desperate cry that tears the night 
 
Refrão   
INTRO 
 
 
G-----------------------7-------------------------------- 
D--2--4---5-4-----4-5-4---------------------------------- 
A---2---2-----2-3---------------------------------------- 
E-------------------------------------------------------- 
Repete 4x 
 
Parte do solo: 
 
G-------------------------------------------------------- 
D-------------------------------------------------------- 
A-------------------2-2-----------------5-5-2-2---------- 
E---0-0-0-0-0-0-0-0-----5-5-5-5-5-5-5-5------------------ 
Repete 4x 
 
Volta no Refrão(2x) e acaba 
 

	  

there isn't a video lesson for this song

request
Search
auto scroll beats size up size down change color hide chords drawings
tab show chords e-chords YouTube Clip e-chords hide all tabs e-chords go to top tab