Iron Maiden

home > Iron Maiden

Twilight Zone Tab

Iron Maiden

Difficulty: BeginnerBeginner

by Binbags

tuner correct add songbook print version text version save to e-mail
chordsukulelecavacokeyboardtabbassdrumsharmonicsflute Guitar Pro
chords

Twilight Zone

Year: 1981 - Album: Killers

  		 
Tunning E A D G B E 
 
 Intro 
 
    PM   PM  PM  PM  PM  PM    h   h   h    
E------------------------------------------| 
B------------------------------------------| 
G------------------------------------------| 
D------7---5---4---5---4---5-4-5p4-5p4-5p4-| 
A--0-0---0---0---0---0---0-----------------| 
E------------------------------------------| 
 
    PM   PM  PM  PM  PM  PM   ~~~~~~~   
E------------------------------------------| 
B------------------------------------------| 
G------------------------------------------| 
D------7---5---4---5---4---5---------------| 
A--0-0---0---0---0---0---0---3--(3)--------| 
E------------------------------------------| 
 
 Rpt 
 
 Main Riff 
 
 
  Guitar 1 
    PM   PM  PM  PM  PM   ~~~          
E{-------------------------------------| 
B{-------------------------------------| 
G{------------------------5------------| 
D{------7---5---4---5---4----7-5-------| 
A{--0-0---0---0---0---0----------7--0--| 
E{-------------------------------------| 
 {Guitar 1 
 {  PM   PM  PM  PM  PM   ~~~          
E{-------------------------------------| 
B{-------------------------------------| 
G{------------------------9--9-7-------| 
D{------10--9---7---9---7--------10-7--| 
A{--0-0---0---0---0---0----------------| 
E{-------------------------------------| Rpt 3 X 
 
  Guitar 1 
    PM   PM  PM  PM           
E{-------------------------------| 
B{-------------------------------| 
G{-------------------------------| 
D{------7---5---4---5-4---5--7---| 
A{--0-0---0---0---0-----7-3--5---| 
E{-------------------------------| 
 {Guitar 1 
 {  PM   PM  PM  PM         
E{-------------------------------| 
B{-------------------------------| 
G{-------------------------------| 
D{------10--9---7---5-4---5--7---| 
A{--0-0---0---0---0-----7-3--5---| 
E{-------------------------------| 
 
 Verse 
 
    PM   PM  PM  PM  PM  PM    h   h   h    
E------------------------------------------| 
B------------------------------------------| 
G------7---5---4---5---4---5-4-5p4-5p4-5p4-| 
D------7---7---5---5---5---5-5-------------| 
A--0-0---0---0---0---0---0-----------------| 
E------------------------------------------| Rpt 3 X 
 
  Guitar 1 
    PM   PM  PM  PM           
E{-------------------------------| 
B{-------------------------------| 
G{------7---5---4----------------| 
D{------7---7---5---5-4---5--7---| 
A{--0-0---0---0---0-----7-3--5---| 
E{-------------------------------| 
 {Guitar 2 
 {  PM   PM  PM  PM           
E{-------------------------------| 
B{-------------------------------| 
G{------7---5---4---5-4---5--7---| 
D{------7---7---5---5-5-5-5--7---| 
A{--0-0---0---0---0--------------| 
E{-------------------------------| 
 
 Rpt Above Riffs 
 
 Chorus 
 
  {PM}      {PM}      {PM}      {PM}      {PM} 
E-------------------------------------------------------------------| 
B-------------------------------------------------------------------| 
G-101010-10-101010-10-101010-10-101010-10-----2------(2)------------| 
D-101010-10-101010-10-101010-10-101010-10-----2------(2)------------| 
A-8-8-8--8--8-8-8--8--8-8-8--8--8-8-8--8--0-0-0------(0)------------| 
E-------------------------------------------------------------------| 
 
  Guitar 1 
E{--------------| 
B{--------------| 
G{-5-4-2--0--2--| 
D{--------------| 
A{--------------| 
E{--------------| 
 {Guitar 2 
E{--------------| 
B{-5-3----------| 
G{-----5--4--5--| 
D{--------------| 
A{--------------| 
E{--------------| 
 
 Rpt above riffs 
 
  {PM}      {PM}      {PM}      {PM}       
E-----------------------------------------| 
B-----------------------------------------| 
G-101010-10-101010-10-101010-10-101010-10-| 
D-101010-10-101010-10-101010-10-101010-10-| 
A-8-8-8--8--8-8-8--8--8-8-8--8--8-8-8--8--| 
E-----------------------------------------| 
 
  Guitar 1 
   {PM}      {PM}   
E{------------------| 
B{------------------| 
G{---------------5--| 
D{-----7p5-------5--| 
A{-0-0-----7-0-0-3--| 
E{------------------| 
 {Guitar 2 
 { {PM}      {PM} 
E{------------------| 
B{------------------| 
G{-----7p5-------5--| 
D{-----7p5-------5--| 
A{-0-0-----7-0-0----| 
E{------------------| Rpt 
 
 
E-------------------------------------------------------------------| 
B-------------------------------------------------------------------| 
G-----0--0-------0--0------0--0-------0--0--5---/7---/10--\9---(9)--| 
D-------------------------------------------5---/7---/10--\9---(9)--| 
A-5-5-------5-5--------5-5-------5-5--------3---/5---/8---\7---(7)--| 
E-3-3-------3-3--------3-3-------3-3--------------------------------| 
 
 Harmonised solo 
 
  Guitar 1 
   A        B        C        D       E 
E{----------------------------------------------| 
B{----------------------------------------------| 
G{-5--5-4-5/7--7-5-7/9--9-7-9/11-9-11/13-11-13--| 
D{----------------------------------------------| 
A{----------------------------------------------| 
E{----------------------------------------------| 
 {Guitar 2 
E{----------------------------------------------| 
B{----------------------------------------------| 
G{-------------------5--5-4-5/7--5--7/9--7--9---| 
D{-7--7-5-7/9--9-7-9----------------------------| 
A{----------------------------------------------| 
E{----------------------------------------------| 
 
  Guitar 1 
   A        B      C       D    E 
E{-------12-------------------------------| 
B{-10-------12----------------------------| 
G{-----9--------9--9-10----9--------------| 
D{----------------------12---10-10-9--7\--| 
A{----------------------------------------| 
E{----------------------------------------| 
 {Guitar 2 
E{----------------------------------------| 
B{----------------------------------------| 
G{-9--------10----------------------------| 
D{-----10-------10-9-10----9--------------| 
A{----------------------12---10-8--7--\---| 
E{----------------------------------------| 
  
 Guitar 1 
   A      B       C      D       E 
E{-----------------------------------------| 
B{-----------------------------------------| 
G{-5----5/7-----7/9-----9/11-9-11/13-11-13-| 
D{-----------------------------------------| 
A{----7------10------12--------------------| 
E{-----------------------------------------| 
 {Guitar 2 
E{-----------------------------------------| 
B{-----------------------------------------| 
G{-----------------------------------------| 
D{-7----7/9-----9/10---10-121012/14-12-14--| 
A{----7------10------12--------------------| 
E{-----------------------------------------| 
 
  Guitar 1 
E{---------------------------| 
B{-10----10-12----12-13---13-| 
G{---------------------------| 
D{-----10-------9-------10---| 
A{---------------------------| 
E{---------------------------| 
 {Guitar 2 
E{---------------------------| 
B{-13----------------10---10-| 
G{-----9-9--10--12-10---9----| 
D{---------------------------| 
A{---------------------------| 
E{---------------------------| 
 
 Both guitars 
 
E----------------------------| 
B----------------------------| 
G----------------------------| 
D-7-5------------------------| 
A-----7-5\3-0---2---3-2---0--| 
E-------------3---3-----3----| 
 
 Rpt intro riff 3 X 
 
  Guitar 1 
    PM   PM  PM            
E{--------------------------------------| 
B{--------------------------------------| 
G{----------------4p2p0-----------------| 
D{------7---5---4-------4p2p0-----------| 
A{--0-0---0---0---------------3p2p0-----| 
E{----------------------------------3-3-| 
 {Guitar 1 
 {  PM   PM  PM  PM         
E{--------------------------------------| 
B{--------------------------------------| 
G{----------------7p6p5-----------------| 
D{------7---5---4-------7p5\4-2p0-------| 
A{--0-0---0---0-------------------3-----| 
E{----------------------------------3-3-| 
 
 Rpt Main Riffs 
 Rpt Verse 
 Rpt Chorus 
 
 Outro 
 
E-----------------------------| 
B-----------------------------| 
G-----------------------------| 
D-7-5---------------------2\--| 
A-----7-5\3-0---2---3-2---0\--| 
E-------------3---3-----3-----| 
 
 
 
END 
 
 

	  

Full key step upFull key step up
Half key step upHalf key step up
Half key step downHalf key step down
Full key step downFull key step down
Search Paypal
auto scroll beats size up size down change color hide chords drawings
tab show chords e-chords YouTube Clip e-chords hide all tabs e-chords go to top tab