Iron Maiden

home > Iron Maiden

The Educated Fool Tab

Iron Maiden

Difficulty: EasyEasy

tuner correct add songbook print version text version save to e-mail
chordsukulelecavacokeyboardtabbassdrumsharmonicsflute Guitar Pro
chords

The Educated Fool

Year: 1998 - Album: Virtual XI

  		 
------------------------------------------------------------------------------ 
|                                                         
|------------------------------------------------------------------------------ 
|                                                         
|------------------------------------------------------------------------------ 
|                                         PO                
|------9--10--9-----9--10--9--10--9/12--10  9---------------------------------- 
|                                                         
|-(7)-----------(7)----------------------------12------------------------------ 
|                                                        
|--0-------------0------------------------------------------------------------- 
 
 
 
 
|------------------------------------------------------------------------------ 
|                                                         
|------------------------------------------------------------------------------ 
|                                                         
|------11--12--14--12--11--12~~------11--12--14--12--11--12--14^14--12--14----- 
|                                                         
|--14----------------------------14-------------------------------------------- 
|                                                         
|------------------------------------------------------------------------------ 
|                                                        
|------------------------------------------------------------------------------ 
 
                ___________ ________ 
    E5  C5     |1.  G5  A5 |2. G5 
|---------------|-----------|-------------------------------------------------- 
|               |           |                               
|---------------|-----------|-------------------------------------------------- 
|               |           |                               
|---9----5------|-----------|-------------------------------------------------- 
|               |           |                               
|---9----5------|----5---7--|---5---------------------------------------------- 
|               |           |                               
|---7----3------|----5---7--|---5---------------------------------------------- 
|               |           |                              
|---------------|----3---5--|---3---------------------------------------------- 
 
 
 
ARRANGED FOR TWO GUITARS (2 OCTAVES): 
 
|------------------------------------------------------------------------------ 
|                                                         
|------------------------------------------------------------------------------ 
|                                                         
|------16------14------12--12--12--14--12--11---------------------------------- 
|                                                         
|--14------14------14---------------------------------------------------------- 
|                                                         
|------14------12------10--10--10--12--10--9----------------------------------- 
|                                                        
|--12------12------12---------------------------------------------------------- 
 
 
 
WITH DISTORTION: 
              _______ ________ 
   E5   G5  |1. G5  |2.  A5     |   E5  G5  C5  D5  E5  E5 G5  C5  D5  
|-------------|-------|-----------|-------------------------------------------- 
|             |       |           |                          
|-------------|-------|-----------|-------------------------------------------- 
|             |       |           |                          
|---9---------|-------|-----------|----9-------5---7----9----9---12---5---7---- 
|             |       |           |                          
|---9------5--|---5---|----7------|----9---5---5---7----9----9---12---5---7---- 
|             |       |           |                          
|---7------5--|---5---|----7------|----7---5---3---5----7----7---10---3---5---- 
|             |       |           |                         
|----------3--|---3---|----5------|--------3----------------------------------- 
 
 
 
|------------------------------------------------------|---------------------- 
|                                                      |  
|------------------------------------------------------|---------------------- 
|                                                    ? |  
|------------------------------7-----------------------|---------------------- 
|                                                      |  
|-----9--10--9~~-----9--10--9-----10--9--10--------7  -|---------------------- 
|                                                   ?  |  
|--7--------------7--------------------------10~~------|---------------------- 
|                                                      |  
|------------------------------------------------------|---------------------- 
 
 
                         
|-------------------------------------------|---------------------------------- 
|                                           |              
|-------------------------------------------|---------------------------------- 
|                                           |              
|------11--12------11--11--12--14--12--11---|---------------------------------- 
|                                           |              
|--14----------14---------------------------|---------------------------------- 
|                                           |              
|-------------------------------------------|---------------------------------- 
|                                           |             
|-------------------------------------------|---------------------------------- 
 
 
 
SOLO RHYTHM: 
 
   E5 G5  C5  G5 
|------------------------------------------------------------------------------ 
|                                                         
|------------------------------------------------------------------------------ 
|                                                         
|---9---------5/10------------------------------------------------------------- 
|                                                         
|---9----5----5/12------------------------------------------------------------- 
|                                                         
|---7----5----3/12------------------------------------------------------------- 
|                                                        
|--------3--------------------------------------------------------------------- 
 
 
 
 
|-----------------------------------------------------------|------------------- 
|                                                           | 
|-----------------------------------------------------------|------------------- 
|                                                       ?   | 
|-----------------------------------------7-----------------|------------------- 
|                                                           | 
|-----9--10--9--9-----9--10--9--9--10--9-----10--9--7~~-----|------------------- 
|                                                       ?   | 
|--7---------------7----------------------------------------|------------------- 
|                                                           | 
|-----------------------------------------------------------|------------------- 
 

	  

Full key step upFull key step up
Half key step upHalf key step up
Half key step downHalf key step down
Full key step downFull key step down
Search Paypal
auto scroll beats size up size down change color hide chords drawings
tab show chords e-chords YouTube Clip e-chords hide all tabs e-chords go to top tab