Iron Maiden

home > Iron Maiden

Total Eclipse Bass Tab

Iron Maiden

Difficulty: nolevelnolevel

by Timom

tuner correct add songbook print version text version save to e-mail
chordsukulelecavacokeyboardtabbassdrummharmonicsflute Guitar Pro
chords

Total Eclipse

Year: 1982 - Album: The Number of the Beast

  		Tab explanations 
----------------------------------------------------- 
>   Accent                 |      /   Slide up 
.   Staccatto              |      \   Slide down 
h   Hammer-on/ pull off    |      :   Repeat 
?   Harmonic               |      ~   slight bend  
----------------------------------------------------- 
 
 
Total Eclipse ( Harris/Di'Anno/Burr ) 
 ( From the B-side of single " Run to The Hills " )       
  
 
----------|------------------------------------------------------------------ 
----------|------------>--------------3---------------5---------------------- 
----------|--->--------3---5-5------3---3--1--------5---5--3-->--------->---- 
----------|---5---3-3-----------1---------------3-------------5---3-3---5---3 
Pickup-     Intro 
Drum 
 
----------------------------------------------------------------------------- 
---->---------------3--------------5----------------------------------------- 
----3---5-5-------3---3--1-------5---5--3------------------------------------ 
-3------------1--------------3--------------5-------------------------------- 
                                               Guitar 
 
----------------------------------------------------------------------------- 
----------------------------------------------------------------------------- 
----------------------------------------------------------------------------- 
--5-5-5-5--5-5-5-5--5-5-5-5--5-5-5-5--5-5-5-5--5-5-5-5--5-5-5-5--5-5-5-5----- 
   Crescendo                                                        End Intro 
                                                               
----------------------------------------------------------------------------- 
----------------------------------------------------------------------------- 
----------------------------------------------------------0-3-2-------------- 
-5--5-5-5--5-5-5--5--5-5-5--5-5-5--5--5-5-5--5-5-5---5-----------3-2-0-5--5-5 
 
----------------------------------------------------------------------------- 
----------------------------------------------------------------------------- 
----------------------------------------------------------------------------- 
-5--5-5-5--5--5-5-5--5-5-5--5--5-5-5--5-5-5--5--0-3-2-3-2-0-5--5-5-5--5-5-5-- 
 
----------------------------------------------------------------------------- 
----------------------------------------------------------------------------- 
----------------------------------------0-3-2-3-2---------------------------- 
-5--5-5-5--5-5-5--5--5-5-5--5-5-5----5------------3--5--5-5-5--5-5-5--5--5-5- 
 
----------------------------------------------------------------------------- 
----------------------------------------------------------------------------- 
-----------------------------------------2-3-2------------------------------- 
-5--5-5-5--5--5-5-5--5-5-5--5--5-5---0-0-------3--0-0-0-0--0-0-0-0--0-0-0-0-- 
                                                       "Sunrise is gone..." 
 
----------------------------------------------------------------------------- 
----------------------------------------------------------------------------- 
-2-3-2-------------------->--->---2-3-2------------------------------2-3-2--- 
-------3--0-0-0-0--0-0-0--3---5-0-------3--0-0-0-0--0-0-0-0--0-0-0-0-------3- 
 
---------------->------------------------------------------------------------ 
----------------5-->---.-.--------------------------------------------------- 
-------------------5---5-5-3-2----------------------------------------------- 
-0-0-0-0--0-0-0-----------------5--5-5-5--5-5-5--5--5-5-5--5-5-5--5--5-5-5--- 
 
----------------------------------------------------------------------------- 
----------------------------------------------------------------------------- 
-----------0-------3----0---------------------------------------------------- 
-5-5-5--5-----0--0---3------5--5-5-5--5-5-5--5--5-5-5--5-5-5--5--5-5-5--5-5-5 
 
----------------------------------------------------------------------------- 
----------------------------------------------------------------------------- 
----0-3-0-------------------------------------------------------------------- 
-5---------3-2-0--5--5-5-5--5-5-5--5--5-5-5--5-5-5--5--5-5-5--5-5-5--5--3-0-0 
 
----------------------------------------------------------------------------- 
----------------------------------------------------------------------------- 
----------------------------------------------------------------------2-3-2-- 
-3-2-0---5--5-5-5--5-5-5--5--5-5-5--5-5-5--5--5-5-5--5-5-5--5--5-0-0--------3 
 
----------------------------------------------------------------------------- 
----------------------------------------------------------------------------- 
---------------------------------------------------------------->-->----2-3-2 
-0-0-0-0--0-0-0-0--0-0-0-0--2-3-2-0--0-0-0-0--0-0-0-0--0-0-0-0--3--5--0------ 
 
------------------------------------------------------------------>---------- 
------------------------------------------------------------------5-->------- 
-------------------------------2-3-2---------------------------------5---5-5- 
-3--0-0-0-0--0-0-0-0--0-0-0-0--------3--0-0-0-0--0-0-0-0--0-0-0-0------------ 
 
----------------------------------------------------------------------------- 
----------------------------------------------------------------------------- 
-3-2---------------------------------------3--3-3-3--3-3-3--5--5-5-5--5-3-2-- 
------5--5-5-5--5-5-5--3--3-3-3--3-3-3--3------------------------------------ 
     "Around the World..." 
 
----------------------------------------------------------------------------- 
----------------------------------------------------------------------------- 
---------------------------------------------2-3----------------------------- 
-0--0-0-0--0-0-0--3--3-3-3--3-3-0--5--5-5-5-------3--3-3-3--3-0-2---5--5-5-5- 
 
----------------------------------------------------------------------------- 
----------------------------------------------------------------------------- 
-------------------------3--3-3-3--3-0-3--5--5-5-5--5-3-2-------------------- 
-5-3-0--3--3-3-3--3-3-3------------------------------------0--0-0-0--0-0-0--- 
 
----------------------------------------------------------------------------- 
------------------->---------->---------->-----------.--.--->----------->---- 
-------------------7--7-7-7-7-7--7-7-7-7-7--7-7-7-7--3--5---7---7-7-7-7-7---- 
--3--3-3-3--3-2-0------------------------------------------------------------ 
                  Faster - Guitar Solo 
 
----------------------------------------------------------------------------- 
--------->------------.--.--->---------->---------->------------.--.--->----- 
-7-7-7-7-7---7-7-7-7--3--5---7--7-7-7-7-7--7-7-7-7-7---7-7-7-7--3--5---7--7-7 
----------------------------------------------------------------------------- 
                                               
--------------------------------------->---------->---------->-----------.->- 
----->----------->-------------.--.----4--4-4-4-4-4--4-4-4-4-4--4-4-4-4--4-5- 
-7-7-7---7-7-7-7-7---7-7-7-7---3--5------------------------------------------ 
----------------------------------------------------------------------------- 
 
->---------->---------->-----------.->-->---------->---------->-----------.-> 
-4--4-4-4-4-4--4-4-4-4-4--4-4-4-4--4-5--4--4-4-4-4-4--4-4-4-4-4--4-4-4-4--4-5 
----------------------------------------------------------------------------- 
----------------------------------------------------------------------------- 
 
->---------->---------------------------------------------------------------- 
-4--4-4-4-4-4--4-4-4-4---5-4------------------------------------------------- 
------------------------------7-5-4----------5--5-5--0-5-3--------------3--3- 
-------------------------------------7-5-0------------------5--5-5--3-5------ 
                       Ritardando              "Those were the days..." 
 
----------------------------------------------------------------------------- 
----------------------------------------------------------------------------- 
-3----3--------------------5--5-5----5-3---------------3-2-------------5--5-5 
----5---5---3--3-3--0-3-0----------5-------5--5-5--3-5------3---0-3-2-------- 
 
----------------------------------------------------------------------------- 
----------------------------------------------------------------------------- 
-0-5-3--------------3--2-3-2-3-2-----------------5--5-5--0-5-3--------------3 
--------5--5-5--3-5---------------3--3-3--0-3-0-----------------5--5-5--3-5-- 
 
--------|-------------------------------------------------------------------- 
--------|------------>--------------3-------------5-------------------------- 
-2------|-->---------3--5-5------3----3--1------5---5--3--->-------->-------- 
---3----|--5--3-3-------------1--------------3-------------5--3-3---5--3-3--- 
          Outro 
 
---------------------------------------------------------|| 
-->-------------3------------5---------------------------|| 
--3--5-5------3---3--1-----5---5--3-->-------------------|| 
-----------1------------3------------5--3-3--------------|| 
                                              Cymbal roll 
	  

Search Paypal
auto scroll beats size up size down change color hide chords drawings
tab show chords e-chords YouTube Clip e-chords hide all tabs e-chords go to top tab