Iron Maiden

home > Iron Maiden

El Dorado Tab

Iron Maiden

Difficulty: ExpertExpert

by victborges

tuner correct add songbook print version text version save to e-mail
chordsukulelecavacokeyboardtabbassdrumsharmonicsflute Guitar Pro
chords

El Dorado

  		(intro) 

|----------------------------------------| 
|----------------------------------------| 
|----------------------------------------| 
|----------------------------------------| 
|--------------2-------------------------| 
|----12/-------0-------------------------| 

|----------------------------------------| 
|----------------------------------------| 
|----------------------------------------| 
|----------------------------------------| 
|---------------------2--5-5/7-----------| 
|--0-0-0-0-0-0-0------0--3-3/5-----------| 

|----------------------------------------| 
|----------------------------------------| 
|----------------------------------------| 
|--------------------------7-7/2---------| 
|---------------------2-5--5-5/0---------| 
|--0-0-0-0-0-0-0------0-3----------------| 

|----------------------------------------| 
|----------------------------------------| 
|----------------------------------------| 
|----------------------------------------| 
|---------------------5--7--2------5-5/7-| 
|--0-0-0-0-0-0-0------3--5--0---0--3-3/5-| 

|--------------------------------------------| 
|--------------------------------------------| 
|--------------------------------------------| 
|-------------------------7-7/2-----7-6------| 
|---------------------2-5-5-5/0-----5-4--5-4-| 
|--0-0-0-0-0-0-0------0-3----------------3-2-| 

|----------------------------------------| 
|----------------------------------------| 
|----------------------------------------| 
|----------------------------------------| 
|-----------------------5-7-2------5-5/7-| 
|--0-0-0-0-0-0-0--------3-5-0---0--3-3/5-| 

|----------------------------------------| 
|----------------------------------------| 
|----------------------------------------| 
|-----------------------------------7-7/2-| 
|---------------------5--7--2---5---5-5/0-| 
|--0-0-0-0-0-0-0------3--5--0---3--------| 

(antes do Refrão) 
|--------------------------------------| 
|--------------------------------------| 
|-6-8-9--6-8-9--12--9------------------| 
|--------------------------------------| 
|-4-6-7--4-6-7--10--7------------------| 
|--------------------------------------| 

|--------------------------------------| 
|--------------------------------------| 
|-6-8-9--6-8-9--12--13-----------------| 
|--------------------------------------| 
|-4-6-7--4-6-7--10--11-----------------| 
|--------------------------------------| 

(base) 
|---------------------------------------| 
|---------------------------------------| 
|--------------6------------------------| 
|--------------4------------------------| 
|---------------------------------------| 

(Refrão) 
|----------------------------------------| 
|----------------------------------------| 
|----------------------------------------| 
|--------3-----5-7-8---3--5--------------| 
|----5---1--3--3-5-6---1--3--------------| 
|----3------1----------------------------| 

(depois do Refrão) 
|----------------------------------------| 
|----------------------------------------| 
|--9--7--9-10---7-9-------10-9-7-9-5-7---| 
|--7--5--7-8----5-7-------8--7-5-7-3-5---| 
|----------------------------------------| 
|----------------------------------------| 

|------------------------------------------------| 
|------------------------------------------------| 
|--10-9-7-7--9-10-7-9--12-10-9----10-9-7-9-5-7---| 
|--8--7-5-5--7-8--5-7--10-8--7----8--7-5-7-3-5---| 
|------------------------------------------------| 
|------------------------------------------------| 

|--------------------------------------------------------------| 
|--------------------------------------------------------------| 
|--------------------------------------------------------------| 
|--------------------------------------------------------------| 
|--------------------------------------------------------------| 
|--0-0-0--5-7-8--5-7---0-0-0-0-0-0-0--5-7-5--0--8-7-5----------| 

|--------------------------------------------------------------| 
|--------------------------------------------------------------| 
|--------------------------------------------------------------| 
|--------------------------------------------------------------| 
|--------------------------------------------------------------| 
|--0-0-0--5-7-8--5-7---10-8-7-0-0-0-0--5-7-5--0--8-7-5---------| 

(base dos solos - na ordem ) 
|----------------------------------------| 
|----------------------------------------| 
|--9--7--9-10---7-9-------10-9-7-9-5-7---| 
|--7--5--7-8----5-7-------8--7-5-7-3-5---| 
|----------------------------------------| 
|----------------------------------------| 

|------------------------------------------------| 
|------------------------------------------------| 
|--10-9-7-7--9-10-7-9--12-10-9----10-9-7-9-5-7---| 
|--8--7-5-5--7-8--5-7--10-8--7----8--7-5-7-3-5---| 
|------------------------------------------------| 
|------------------------------------------------| 

|--------------------------------------------------------------| 
|--------------------------------------------------------------| 
|--------------------------------------------------------------| 
|--------------------------------------------------------------| 
|--------------------------------------------------------------| 
|--0-0-0--5-7-8--5-7---0-0-0-0-0-0-0--5-7-5--0--8-7-5----------| 

|--------------------------------------------------------------| 
|--------------------------------------------------------------| 
|--------------------------------------------------------------| 
|--------------------------------------------------------------| 
|--------------------------------------------------------------| 
|--0-0-0--5-7-8--5-7---10-8-7-0-0-0-0--5-7-5--0--8-7-5---------| 

|----------------------------------------| 
|----------------------------------------| 
|----------------------------------------| 
|--4--2--4-5--2-4~---5-4-2-4----2--------| 
|--2--0--2-3--0-2~---3-2-0-2-5--0--------| 
|----------------------------3-----------| (2x) 
	  

Search Paypal
auto scroll beats size up size down change color hide chords drawings
tab show chords e-chords YouTube Clip e-chords hide all tabs e-chords go to top tab