Iron Maiden

home > Iron Maiden

Don't Look to the Eyes of a Stranger Tab

Iron Maiden

Difficulty: nolevelnolevel

by ALMA%5FDE%5FGATO

tuner correct add songbook print version text version save to e-mail
chordsukulelecavacokeyboardtabbassdrumsharmonicsflute Guitar Pro
chords

Don't Look to the Eyes of a Stranger

Year: 1998 - Album: Virtual XI

  		Disco: Virtual XI (1998)


NOTATION:
PALM MUTING: PM..... THE PALM MUTING IS USED UNTIL THE POINTS FINISH

                ho
HAMMER ON:   --2  4--

               po
PULL OF:    --4  2--

BENDING:    --2^4-- BEND A WHOLE TONE FORM 2 TO 4th STEP

VIBRATO:   --4~~~--




 






      Ab5                     E5                    D#5  
|------------------------------------------------------------------------------
|                                                        
|------------------------------------------------------------------------------
|                                                        
|-------------13------13------------9-----9--------------8---8-----------------
|                                                        
|---------13------13------13-----9-----9-----9---------8---8---8---------------
|                                                        
|-----11----------------------7----------------------6-------------------------
|                                                       
|------------------------------------------------------------------------------



___________________  ________________________
|1. B5               |2. 
|--------------------|----------------------------------------------------------
|                    |                                    
|--------------------|----------------------------------------------------------
|                  . |                                    
|--------4-----4-----|---------6-----6------------------------------------------
|                    |                                    
|-----4-----4-----4--|------6-----6-----6---------------------------------------
|                  . |                                    
|---2----------------|---4------------------------------------------------------
|                    |                                   
|--------------------|----------------------------------------------------------



KEYBOARDS:

|------------------------------------------------------------------------------
|                                                        
|------------------------------------------------------------------------------
|                                                        
|-----------------------------------------------6--8--6------------------------
|                                                        
|--6--8--9--8--9--8--9--8--6-----6--8--9--8--9-----------9--8------------------
|                                                        
|-----------------------------9------------------------------------------------
|                                                       
|------------------------------------------------------------------------------


|------------------------------------------------------------------------------
|                                                        
|-------9-----9-----7----------------------------------------------------------
|                                                        
|----8-----8-----8-----9-------------------------------------------------------
|                                                        
|------------------------------------------------------------------------------
|                                                        
|------------------------------------------------------------------------------
|                                                       
|------------------------------------------------------------------------------







|------------------------------------------------------------------------------
|                                                        
|------------------------------------------------------------------------------
|                                                        
|------------13------13------11---9--------------------------------------------
|                                                        
|------------13------13------11---9--------------------------------------------
|                                                        
|------------11------11------9----7--------------------------------------------
|                                                       
|----11--11------11------11----------------------------------------------------



INTRO AND...   C#5
|------------------------------------------------------------------------------
|                                                        
|------------------------------------------------------------------------------
|                                                        
|--------------------6-----6-----------------------------------------------------
|                                                        
|-----------------6-----6-----6---------------------------------------------------
|                                                        
|--------------4----------------------------------------------------------------
|                                                       
|------------------------------------------------------------------------------





DON'T LOOK TO.. (THE CALMED PART)

|------------------------------------------------------------------------------
|                                                        
|------------------------------------------------------------------------------
|                                                        
|------------------------------------------------------------------------------
|                                                        
|--9--8-----9--8---10--9--8------/10--9--8--9--8--------------------------------------
|                                                        
|--------9-------------------9--------------------9-----------------------------
|                                                       
|------------------------------------------------------------------------------




|-----------------------------------|-------------------------------------------
|                                   |                     
|-----------------------------------|-------------------------------------------
|                                 . |                     
|-----------------------------------|---------------------------4---------------
|                                 . |                     
|------------------------------9----|---6--4--6--4--6--4--6--4------------------
|    PO HO  PO HO                   |                              
|--11  9  11  9  11--9--11--9-------|-------------------------------------------
|                                   |                    
|-----------------------------------|-------------------------------------------







|------------------------------------------------------------------------------
|                                                        
|------------------------------------------------------------------------------
|                                                        
|---8--6--8--6--8--6--8--6--9--8--6--4-----------------------------------------
|                                                        
|---------------------------------------4-/6-----------------------------------
|                                                        
|------------------------------------------------------------------------------
|                                                       
|------------------------------------------------------------------------------




G#5   F#5     E5  C#5      G#5      F#5  C#5  B5   F#5
|------------------------------------------------------------------------------
|                                                        
|------------------------------------------------------------------------------
|                                                        
|-------------------6---------------------------4------------------------------
|                                                        
|--6----4-------2---6--------6--------4----6----4-----4------------------------
|                                                        
|--6----4-------2---4--------6--------4----6----2-----4------------------------
|                                                       
|--4----2-------0------------4--------2----4----------2------------------------




|------------------------------------------------------------------------------
|                                                        
|------------------------------------------------------------------------------
|                                                        
|-----------------------4------------------------------------------------------
|                                                        
|--6--4--6--4--6--4--6-----6---------------------------------------------------
|                                                        
|------------------------------------------------------------------------------
|                                                       
|------------------------------------------------------------------------------



	  

Full key step upFull key step up
Half key step upHalf key step up
Half key step downHalf key step down
Full key step downFull key step down
Search Paypal
auto scroll beats size up size down change color hide chords drawings
tab show chords e-chords YouTube Clip e-chords hide all tabs e-chords go to top tab