Iron Maiden

home > Iron Maiden

brave new world (riff inicial) Tab

Iron Maiden

Difficulty: BeginnerBeginner

by %5FMaiden%5F

tuner correct add songbook print version text version save to e-mail
chordsukulelecavacokeyboardtabbassdrumsharmonicsflute Guitar Pro
chords

brave new world (riff inicial)

  		(guitarra 1). 
 
E|-----1------0------3-----1-----0| 
B|---3------3------3-----3-----3--| 
G|-2------2------2-----2-----2----|              
D|--------------------------------|    
A|--------------------------------| 
E|--------------------------------| 
 
(guitarra 2). 
 
E|---8---------------8---------| 
B|-10--8--6--8-8-10----8-6-8-10| 
G|-----------------------------| 
D|-----------------------------| 
A|-----------------------------| 
E|-----------------------------| 
 
a PRIMEIRA GUITA FIKA SOLANDO DE UM JEITO ENQUATO A OUTRA SOLA DE OUTRO. 

	  

Search Paypal
auto scroll beats size up size down change color hide chords drawings
tab show chords e-chords YouTube Clip e-chords hide all tabs e-chords go to top tab