Iron Maiden

home > Iron Maiden

Aces High////////entera Tab

Iron Maiden

Difficulty: ExpertExpert

by FGMretro

tuner correct add songbook print version text version save to e-mail
chordsukulelecavacokeyboardtabbassdrumsharmonicsflute Guitar Pro
chords

Aces High////////entera

  		______________________________________________________________________ 

Guitar 1: x4 
E----|---------------|--------------|--------------|----------------| 
B----|---------------|--------------|--------------|----------------| 
G----|.---1---2--1---|---1---2--1---|---1---2--1---|---1---2--1----.|  
D--2-|.-4---4-------2|-4---4--------|-0---4-------2|-4---4-------2-.| 
A----|---------------|-------------4|--------------|----------------| 
E----|---------------|--------------|--------------|----------------| 
                                                                    | 
Guitar 2: x4                                                           
E----|---------------|--------------|--------------|----------------| 
B----|----0---2--0---|---0---2--0---|---0---2--0---|---0---2--0-----| 
G--1-|.-2---2-------1|-2---2-------1|-2---2-------1|-2---2-------1-.|  
D----|.--------------|--------------|--------------|---------------.| 
A----|---------------|--------------|--------------|----------------| 
E----|---------------|--------------|--------------|----------------| 

______________________________________________________________________ 

Guitar 1: 
E----------------|----------------| 
B----------------|----------------| 
G----1---2--1----|---1------------| 
D--0---4-------2-|-4---4-2(hold)--| 
A----------------|----------------| 
E----------------|----------------| 

Guitar 2:    
E----------------|----------------| 
B----0---2--0----|---0------------| 
G--2---2-------1-|-2---2-1(hold)--| 
D----------------|----------------| 
A----------------|----------------| 
E----------------|----------------| 

______________________________________________________________________ 

Guitar 1: 
E---------------|----------|-------------|------------------| 
B---------------|-5--5-----|-------------|---------5--------| 
G--5--4-5p4-5p4-|-------5--|--5--4-5p4-5-|4-4-7-7----7-5p4--| 
D---------------|----------|-------------|------------------| 
A---------------|----------|-------------|------------------| 
E---------------|----------|-------------|------------------| 
                                                            | 
Guitar 2:                                                   | 
E---------------|----------|-------------|------------------| 
B---------------|----------|-------------|------------------| 
G---------------|-5--5-----|-------------|---------5--------| 
D--7--5-7p5-7p5-|-------7--|--7--5-7p5-7-|5-9-9-9----9-7p5--| 
A---------------|----------|-------------|------------------| 
E---------------|----------|-------------|------------------| 

______________________________________________________________________ 

Dueto de guitarras: 
E---------------|-------------|-------------|--------------| 
B---------------|-------------|-------------|--------------| 
G---------------|-------------|-------------|--------------| 
D--9----11---12-|-14-12---11--|--9---12--11-|-----11-------| 
A--7----9----10-|-12-10---9---|--7---10--9--|-12--9----12--| 
E---------------|-------------|-------------|-10-------10--| 


E---------------|-------------|-------------|--------------| 
B---------------|-------------|-------------|--------------| 
G---------------|-------------|-------------|--------------| 
D--9----11---12-|-14--12---11-|--9---12--11-|--------------| 
A--7----9----10-|-12--10---9--|--7---10--9--|-12-----------| 
E---------------|-------------|-------------|-10-----------| 

E---------------|-------------|-------------|--------------| 
B---------------|-------------|-------------|--------------| 
G---------------|-------------|-------------|--------------| 
D--2----4----5--|-7---5----4--|--2---5---4--|-----4--------| 
A--0----2----3--|-5---3----2--|--0---3---2--|-5---2----5---| 
E---------------|-------------|-------------|-3--------3---| 

E---------------|-------------|-------------|--------------| 
B---------------|-------------|-------------|--------------|  
G---------------|-------------|-------------|--------------|  
D--2----4----5--|-7---5----4--|--2---5---4--|--------------| 
A--0----2----3--|-5---3----2--|--0---3---2--|-5------------| 
E---------------|-------------|-------------|-3------------| 

______________________________________________________________________ 

   Rolling           turning 
E-----------------|-----------------| 
B-----------------|-----------------| 
G-----------------|-----------------| 
D-----------------|--5--------------| 
A--5-7-7-7--7-7---|----7-7-7--7-7---| 
E-----------------|-----------------| 

   diving 
E-----------------|------------------| 
B-----------------|------------------| 
G-----------------|-5-4-----4--------| 
D--7--------------|-----7-5---7-5-4--| 
A----7-7-7--7-7---|------------------| 
E-----------------|------------------| 

   Rolling           turning 
E-----------------|-----------------| 
B-----------------|-----------------| 
G-----------------|-----------------| 
D-----------------|--5--------------| 
A--5-7-7-7--7-7---|----7-7-7--7-7---| 
E-----------------|-----------------| 

   diving           going in again 
E-----------------|------------------| 
B-----------------|------------------| 
G-----------------|-5-4-----4--------| 
D--7--------------|-----7-5---7------| 
A----7-7-7--7-7---|------------------| 
E-----------------|------------------| 

E|-0----------------|  
B|---3-1p0-3-1------| 
G|------------------| 
D|------------------| 
A|------------------| 
E|------------------|                               x2 

______________________________________________________________________ 







Dueto de guitarras: 
E|------------------| 
B|------------------| 
G|-5-4-2---4-2------| 
D|-------5-----5-4--| 
A|------------------| 
E|------------------| 

______________________________________________________________________    

Run          live to... 
E|------------|--------------| 
B|------------|--------------| 
G|------------|--------------| 
D|--9---------|--5-----7-----| 
A|--7---------|--3-----5-----| 
E|------------|--------------| 

...fly          fly to... 
E|------------|--------------| 
B|------------|--------------| 
G|------------|--------------| 
D|--9---------|--5-----7-----| 
A|--7---------|--3-----5-----| 
E|------------|--------------| 

...live         do or... 
E|------------|--------------| 
B|------------|--------------| 
G|------------|--------------| 
D|--9---------|--5-----7-----| 
A|--7---------|--3-----5-----| 
E|------------|--------------| 

...die          won´t you. 
E|------------|--------------| 
B|------------|--------------| 
G|------------|--------------| 
D|--9---------|--5-----7-----| 
A|--7---------|--3-----5-----| 
E|------------|--------------| 

   Run          live to... 
E|------------|--------------| 
B|------------|--------------| 
G|------------|--------------| 
D|--12--------|--8-----10----| 
A|--10--------|--6-----8-----| 
E|------------|--------------| 

...fly          fly to... 
E|------------|--------------| 
B|------------|--------------| 
G|------------|--------------| 
D|--12--------|--8-----10----| 
A|--10--------|--6-----8-----| 
E|------------|--------------| 

...live         Aces... 
E|------------|--------------| 
B|------------|--------------| 
G|------------|--------------| 
D|--12--------|--8-----10----| 
A|--10--------|--6-----8-----| 
E|------------|--------------| 





...high 
E|------------|--------------| 
B|------------|--------------| 
G|------------|--------------| 
D|--12--------|--8-----10----| 
A|--10--------|--6-----8-----| 
E|------------|--------------| 

______________________________________________________________________ 

Dueto de guitarras: 
E|--------------|---------------| 
B|--------------|---------------| 
G|--------------|---------------| 
D|--------------|---------7--7--| 
A|--0--3-3--0-0-|-3-2-0---5--5--| 
E|--------------|-------2-------| 

E|--------------|---------------| 
B|--------------|---------------| 
G|--------------|---------------| 
D|--------------|---------2--2--| 
A|--0--3-3--0-0-|-3-2-0---0--0--| 
E|--------------|-------3-------| 

E|--------------|---------------| 
B|--------------|---------------| 
G|--------------|---------------| 
D|--------------|---------7--7--|					 
A|--0--3-3--0-0-|-3-2-0---5--5--| 
E|--------------|-------2-------| 

E|--------------|---------------| 
B|--------------|---------------| 
G|--------------|---------------|  x2 
D|--------------|---------2-----| 
A|--0--3-3--0-0-|-3-2-0---0-----| 
E|--------------|-------3-------| 

______________________________________________________________________ 
	  

Search Paypal
auto scroll beats size up size down change color hide chords drawings
tab show chords e-chords YouTube Clip e-chords hide all tabs e-chords go to top tab