Iron Maiden

home > Iron Maiden

The Trooper (ver. 3) Tab

Iron Maiden

Difficulty: IntermediateIntermediate

by maidenkiss

tuner correct add songbook print version text version save to e-mail
chordsukulelecavacokeyboardtabbassdrumsharmonicsflute Guitar Pro
chords

The Trooper (ver. 3)

  		musica:the trooper(live rock in rio)IRON MAIDEN 
de: steve harris 
 
INTRO thres guitarras 4 x 
|---------------------------------------------------------| 
|---------------------------------------------------------| 
|---------------------------------------------------------| 
|------------------------------------------------5--------| 
|--(7)--7--7-5-----5--5--5-3-----3--3--3-1-----5---5--7---| 
|--------------7-------------5-------------3--------------| 
 
 
On repeat 3 and 4 Dave harmonises with: 
|---------------------------------------------------------| 
|---------------------------------------------------------| 
|---------------------------------------------------------| 
|--(5)--5--5-4-----4--4--4-2-0---2--2--2-0-----4-5-4--5---| 
|--------------7---------------------------3--------------| 
|---------------------------------------------------------| 
 
MAIN RIFF: 
 
Guitar I (Dave) 
|------------------7----------------------------------------| 
|--8--7h8p7h8p7h8-----8--7h8p7h8p7h8--8-----------8---------| 
|----------------------------------------9--9~--7---7--9~---| 
|-----------------------------------------------------------| 
|-----------------------------------------------------------| 
|-----------------------------------------------------------| 
 
Guitar II & III (Adrian) & (Janick) 
|-----------------------------------------------------------| 
|-----------------------------------------------------------| 
|--------------------7--------------------------------------| 
|--9--7h9p7h9p7h9-----9--7h9p7h9p7h9--9---------------------| 
|---------------------------------------10-10~--9-10-9-10~--| 
|-----------------------------------------------------------| 
 
     
|-----------------------------------------------------------------| 
|-----------------------------------------------------------------| 
|---7-----7--9----7-----7--9----7-----7---5----7-----7--9--7-----7| 
|---7--5--7--9----7--5--7--9----7--5--7---5----7--5--7--9--7--5--7| 
|---5--5--5--7----5--5--5--7----5--5--5---3----5--5--5--7--5--5--5| 
|-----------------------------------------------------------------| 
 
VERSE: 1 x 
 
 
cavalgada=(c) 
     
|-----------------------------------------------------------------| 
|--(c)-------------------(c)-------------------(c)------------(c)-| 
|---9-------7-----7---9---9-------7-----7---5---5----7-----7---9--| 
|---9-------7--5--7---9---9-------7--5--7---5---5----7--5--7---9--| 
|---7-------5--5--5---7---7-------5--5--5---3---3----5--5--5---7--| 
|-----------------------------------------------------------------| 
 
Chorus: 2 X 
 
 
 
    Oh, Oh,...          Oh  
|-----------------------------------------------------------------| 
|-----------------------------------------------------------------| 
|---7-------------------------------------------------------------| 
|---7--------------------2----------------------------------------| 
|---5--------------------2----------------------------------------| 
|------------------------0----------------------------------------| 
 
Guitar II (Dave) 
|---2-------------------------------------------------------------| 
|---3-------------------------------------------------------------| 
|---2-------------------9-----------------------------------------| 
|---0-------------------9---2----2-0-2----2-0-2----2-0-2----------| 
|---0-------------------7---2----2-0-2----2-0-2----2-0-2----------| 
|---------------------------0----0---0----0---0----0---0-etc------| 
 
 
Guitar I (Dave) 
|------------------7----------------------------------------| 
|--8--7h8p7h8p7h8-----8--7h8p7h8p7h8--8-----------8---------| 
|----------------------------------------9--9~--7---7--9~---| 
|-----------------------------------------------------------| 
|-----------------------------------------------------------| 
|-----------------------------------------------------------| 
 
Guitar II & III (Adrian) & (Janick) 
|-----------------------------------------------------------| 
|-----------------------------------------------------------| 
|--------------------7--------------------------------------| 
|--9--7h9p7h9p7h9-----9--7h9p7h9p7h9--9---------------------| 
|---------------------------------------10-10~--9-10-9-10~--| 
|-----------------------------------------------------------| 
 
 
VERSE: 2 x 
 
 
cavalgada=(c) 
     
|-----------------------------------------------------------------| 
|--(c)-------------------(c)-------------------(c)------------(c)-| 
|---9-------7-----7---9---9-------7-----7---5---5----7-----7---9--| 
|---9-------7--5--7---9---9-------7--5--7---5---5----7--5--7---9--| 
|---7-------5--5--5---7---7-------5--5--5---3---3----5--5--5---7--| 
|-----------------------------------------------------------------| 
 
Chorus:2 X 
 
 
 
    Oh, Oh,...          Oh  
|-----------------------------------------------------------------| 
|-----------------------------------------------------------------| 
|---7-------------------------------------------------------------| 
|---7--------------------2----------------------------------------| 
|---5--------------------2----------------------------------------| 
|------------------------0----------------------------------------| 
 
Guitar II (Dave) 
|---2-------------------------------------------------------------| 
|---3-------------------------------------------------------------| 
|---2-------------------9-----------------------------------------| 
|---0-------------------9---2----2-0-2----2-0-2----2-0-2----------| 
|---0-------------------7---2----2-0-2----2-0-2----2-0-2----------| 
|---------------------------0----0---0----0---0----0---0-etc------| 
 
 
 
RHYTHM FOR SOLO'S: 
 
 
Gtr II Em  -D-Bm  -C-D (Solo 1)   Gtr I Am  -G-Em-F-G (Solo 2) 
|--------------------------------|--------(3)---0-----(1)----3----| 
|--------(7)---------(5)----(7)--|---------3----0------1-----3----| 
|---9-----7-----4-----5------7---|---2-----4----0------2-----4----| 
|---9-----7-----4-----5------7---|---2-----5----2------3-----5----| 
|---7-----5-----2-----3------5---|---0-----5----2------3-----5----| 
|--(0)---------------------------|--------------0-----(1)---------| 
 
              
Solo 1: Adrian Smith este solo e junto com Janick Gers  
      mas o dele ť uma parte um pouco diferente que ť la em baixo 
      logo apůs esse mas solam juntos!!! 
   E5                             D5 
|------------12--------12--------------------------| 
|--15b(17)---15b(17)---15b(17)--r15--12---15~~~----| 
|--------------------------------------------------| 
|--------------------------------------------------| 
|--------------------------------------------------| 
|--------------------------------------------------| 
 
           
|------15b(17)~-----15--12-----------------------------------| 
|--12--------------------------------------------------------| 
|---------------------------15--14--12-----------------------| 
|---------------------------------------14b(16)-r14--12------| 
|--------------------------------------------------------14--| 
|------------------------------------------------------------| 
 
       
|----------------------------------------------------------------| 
|--------------12-h15-----------12-h15----------12-h15-----------| 
|--14---b(16)----------14b(16)----------14b(16)---------14b(16)--| 
|----------------------------------------------------------------| 
|----------------------------------------------------------------| 
|----------------------------------------------------------------| 
 
 
|-----------------------------------------------------------------| 
|--12-h15----------12-h15----------12-h15----------12-h15---------| 
|----------14b(16)---------14b(16)---------14b(16)--------14b(16)-| 
|-----------------------------------------------------------------| 
|-----------------------------------------------------------------| 
|-----------------------------------------------------------------| 
 
    
|---------------------------------------------------------| 
|--12-h15----------12-h15----------12-h15---------12-h15--| 
|----------14b(16)---------14b(16)--------14b(16)---------| 
|---------------------------------------------------------| 
|---------------------------------------------------------| 
|---------------------------------------------------------| 
 
                      
|-----------------------------------------15--19p15-h17p15------| 
|-------------------------------------/17-------------------17--| 
|--14----15--14--12--14--14--12~\-------------------------------| 
|---------------------------------------------------------------| 
|---------------------------------------------------------------| 
|---------------------------------------------------------------| 
 
                                     
|---15--19p15-h17p15-----15--19p15-h17p15----15--19p15-h17p15--| 
|---------------------17------------------17-------------------| 
|--------------------------------------------------------------| 
|--------------------------------------------------------------| 
|--------------------------------------------------------------| 
|--------------------------------------------------------------| 
 
                               
|-----15--19p15-h17p15----15--19p15-h17p15------15--19p15-h17p15--| 
|--17------------------17-------------------17--------------------| 
|-----------------------------------------------------------------| 
|-----------------------------------------------------------------| 
|-----------------------------------------------------------------| 
|-----------------------------------------------------------------| 
                                                
                        *With harmony(see end ) 
|-------20b(22)--20b(22)--20b(22)--20b(22)r20--20b(22)r20--| 
|---14-----------------------------------------------------| 
|----------------------------------------------------------| 
|----------------------------------------------------------| 
|----------------------------------------------------------| 
|----------------------------------------------------------| 
                                                   
                                              Harmony ends * 
|--20b(22)r20--20b(22)-----19--20--17--19-----17----------------| 
|------------------------------------------20-----19h20--17~~\--| 
|---------------------------------------------------------------| 
|---------------------------------------------------------------| 
|---------------------------------------------------------------| 
|---------------------------------------------------------------| 
 
  
|----------12----------12-----------------------------------------| 
|------12------15b(17)-----15--12---------------------------------| 
|--/14-----------------------------14b(16)r14--12--14--12---------| 
|-----------------------------------------------------------------| 
|----------------------------------------------------------14~~---| 
|-----------------------------------------------------------------| 
 
 
Solo 1: Janick Gers solo junto c/ o do Adrin Smith mas eh um pouco diferente 
    
|------------12--------12--------------------------| 
|--15b(17)---15b(17)---15b(17)--r15--12---15~~~----| 
|--------------------------------------------------| 
|--------------------------------------------------| 
|--------------------------------------------------| 
|--------------------------------------------------| 
 
           B5                                   C5        D5 
|------15b(17)~-----15--12-----------------------------------| 
|--12--------------------------------------------------------| 
|---------------------------15--14--12-----------------------| 
|---------------------------------------14b(16)-r14--12------| 
|--------------------------------------------------------14--| 
|------------------------------------------------------------| 
 
        E5                                              D5 
|----------------------------------------------------------------| 
|--------------12-h15-----------12-h15----------12-h15-----------| 
|--14---b(16)----------14b(16)----------14b(16)---------14b(16)--| 
|----------------------------------------------------------------| 
|----------------------------------------------------------------| 
|----------------------------------------------------------------| 
 
 
|-----------------------------------------------------------------| 
|--12-h15----------12-h15----------12-h15----------12-h15---------| 
|----------14b(16)---------14b(16)---------14b(16)--------14b(16)-| 
|-----------------------------------------------------------------| 
|-----------------------------------------------------------------| 
|-----------------------------------------------------------------| 
 
    
|---------------------------------------------------------| 
|--12-h15----------12-h15----------12-h15---------12-h15--| 
|----------14b(16)---------14b(16)--------14b(16)---------| 
|---------------------------------------------------------| 
|---------------------------------------------------------| 
|---------------------------------------------------------| 
 
                      
|--------------------------------------------15-19p15-h17p15----| 
|-----------------------------------------17----------------17--| 
|-1212-14-15-12-14-14-12-101010-12-10-12------------------------| 
|---------------------------------------------------------------| 
|---------------------------------------------------------------| 
|---------------------------------------------------------------| 
 
                                     
|---15--19p15-h17p15-----15--19p15-h17p15----15--19p15-h17p15--| 
|---------------------17------------------17-------------------| 
|--------------------------------------------------------------| 
|--------------------------------------------------------------| 
|--------------------------------------------------------------| 
|--------------------------------------------------------------| 
 
                               
|-----15--19p15-h17p15----15--19p15-h17p15------15--19p15-h17p15--| 
|--17------------------17-------------------17--------------------| 
|-----------------------------------------------------------------| 
|-----------------------------------------------------------------| 
|-----------------------------------------------------------------| 
|-----------------------------------------------------------------| 
                                                
                        *With harmony(see end ) 
 
|--14b(15)--14b(15)r14--14b(15)r14--14b(15)r14--14b(15)--| 
|--------------------------------------------------------| 
|--------------------------------------------------------| 
|--------------------------------------------------------| 
|--------------------------------------------------------| 
|--------------------------------------------------------| 
 
 
|--12--14-----12----------------------| 
|----------15----13--15--12h13--------| 
|-------------------------------14~~/-| 
|-------------------------------------| 
|-------------------------------------| 
|-------------------------------------| 
             
 
   
|----------12----------12-----------------------------------------| 
|------12------15b(17)-----15--12---------------------------------| 
|--/14-----------------------------14b(16)r14--12--14--12---------| 
|-----------------------------------------------------------------| 
|----------------------------------------------------------14~~---| 
|-----------------------------------------------------------------| 
 
 
 
 
 
 
solo 2: Dave Murray sola sozinho, apenas com as duas bases 
 
|---5h8h5p8p5p85---------------------------------------------------| 
|--5-------------5h8h5p8p5p85--------------------------------------| 
|-7-------------------------------7br7-6-5----6-5------------------| 
|------------------------------------------7-----7-5---------------| 
|----------------------------------------------------6p5-----------| 
|--------------------------------------------------------5//-------| 
 
|------------------------------------------------------------------| 
|------------------------------------------------------------------| 
|-5h7p5h7p5-7h9p7h9p7-9h10p9h10p9-10h12p10h12p10-12h14p12----------| 
|------------------------------------------------------------------| 
|------------------------------------------------------------------| 
|------------------------------------------------------------------| 
 
|---------------------------------------------------------12-------| 
|-15br15br15-13-15br15--------12-13----12-13-15--12-13-15----------| 
|-----------------------12-14-------14-----------------------------| 
|------------------------------------------------------------------| 
|------------------------------------------------------------------| 
|------------------------------------------------------------------| 
 
|--------12h13----12-13-15-13-12h13p12----12-13--17-17-17-17-17----| 
|--13-15-------15----------------------15--------------------------| 
|------------------------------------------------------------------| 
|------------------------------------------------------------------| 
|------------------------------------------------------------------| 
|------------------------------------------------------------------| 
 
|-19-19--20-19-17--20-19-17--20-19-17--20-19-17---20br20b----------| 
|------------------------------------------------------------------| 
|------------------------------------------------------------------| 
|------------------------------------------------------------------| 
|------------------------------------------------------------------| 
|------------------------------------------------------------------| 
 
 
 
 
 
Guitar I (Dave) 
|------------------7----------------------------------------| 
|--8--7h8p7h8p7h8-----8--7h8p7h8p7h8--8-----------8---------| 
|----------------------------------------9--9~--7---7--9~---| 
|-----------------------------------------------------------| 
|-----------------------------------------------------------| 
|-----------------------------------------------------------| 
 
Guitar II & III (Adrian) & (Janick) 
|-----------------------------------------------------------| 
|-----------------------------------------------------------| 
|--------------------7--------------------------------------| 
|--9--7h9p7h9p7h9-----9--7h9p7h9p7h9--9---------------------| 
|---------------------------------------10-10~--9-10-9-10~--| 
|-----------------------------------------------------------| 
 
 
VERSE: 2 x 
 
 
cavalgada=(c) 
     
|-----------------------------------------------------------------| 
|--(c)-------------------(c)-------------------(c)------------(c)-| 
|---9-------7-----7---9---9-------7-----7---5---5----7-----7---9--| 
|---9-------7--5--7---9---9-------7--5--7---5---5----7--5--7---9--| 
|---7-------5--5--5---7---7-------5--5--5---3---3----5--5--5---7--| 
|-----------------------------------------------------------------| 
 
Chorus:2 X 
 
 
 
    Oh, Oh,...          Oh  
|-----------------------------------------------------------------| 
|-----------------------------------------------------------------| 
|---7-------------------------------------------------------------| 
|---7--------------------2----------------------------------------| 
|---5--------------------2----------------------------------------| 
|------------------------0----------------------------------------| 
 
Guitar II (Dave) 
|---2-------------------------------------------------------------| 
|---3-------------------------------------------------------------| 
|---2-------------------9-----------------------------------------| 
|---0-------------------9---2----2-0-2----2-0-2----2-0-2----------| 
|---0-------------------7---2----2-0-2----2-0-2----2-0-2----------| 
|---------------------------0----0---0----0---0----0---0-etc------| 
 
 
 
INTRO thres guitarras 4 x 
|---------------------------------------------------------| 
|---------------------------------------------------------| 
|---------------------------------------------------------| 
|------------------------------------------------5--------| 
|--(7)--7--7-5-----5--5--5-3-----3--3--3-1-----5---5--7---| 
|--------------7-------------5-------------3--------------| 
 
 
On repeat 3 and 4 Dave harmonises with: 
|---------------------------------------------------------| 
|---------------------------------------------------------| 
|---------------------------------------------------------| 
|--(5)--5--5-4-----4--4--4-2-0---2--2--2-0-----4-5-4--5---| 
|--------------7---------------------------3--------------| 
|---------------------------------------------------------| 
  
 
Ultima nota|--------------|fim 
           |--------------|fim 
           |-----9--------|fim 
           |-----9--------|fim 
           |-----7--------|fim 
           |--------------|fim 
	  

Search Paypal
auto scroll beats size up size down change color hide chords drawings
tab show chords e-chords YouTube Clip e-chords hide all tabs e-chords go to top tab