Iron Maiden

home > Iron Maiden

Another Life (ver. 2) Tab

Iron Maiden

Difficulty: nolevelnolevel

by Binbags

tuner correct add songbook print version text version save to e-mail
chordsukulelecavacokeyboardtabbassdrumsharmonicsflute Guitar Pro
chords

Another Life (ver. 2)

  		 
Tunning E A D G B E 
  
 
 Intro 
 
 Both guitars 
 
                ~~~              ~~~              ~~        ~~~ 
E-------------------------------------------------------------------| 
B----------10-12br\---------10-12br\---------10-12br-10-------------| 
G----------10-12br\---------10-12br\---------10-12br-10----10-------| 
D----10-12------------10-12------------10-12------------12----12\---| 
A-12---------------12---------------12------------------------------| 
E-------------------------------------------------------------------| 
                                                              Rpt 
  
 Main Riff  
 
  Guitar 1 
    PM   PM PM       PM  PM  PM   
E{-------------------------------------------------------| 
B{-------------------------------------------------------| 
G{-2---2---2---2p00-2---2---2---2--0------(0)----x-0-0---| 
D{-2---2---2---2p00-2---2---2---2--0------(0)----x-0-0---| 
A{-0-0-0-0-0-0-0----0-0-0-0-0-0-0------------------------| 
E{---------------------------------3------(3)------3-3---| 
 {Guitar 2 
 {  PM   PM PM       PM  PM  PM   
E{---------------------------------3------(3)------3-3---| 
B{---------------------------------3------(3)------3-3---| 
G{-2---2---2---2p02-2---2---2---2--0------(0)----x-0-0---| 
D{-2---2---2---2p02-2---2---2---2--0------(0)----x-0-0---| 
A{-0-0-0-0-0-0-0----0-0-0-0-0-0-0------------------------| 
E{-------------------------------------------------------| Rpt 
 
 Verse 
 
 Rpt Main Riff 2 X with guitar solo. 
 
  Both guitars 
 
   PM   PM PM    PM  PM  PM  PM  PM   
E---------------------------------------| 
B---------------------------------------| 
G-2---2---2---2-2---4---5---7---5---4\--| 
D-2---2---2---2-2---4---5---7---5---4\--| 
A-0-0-0-0-0-0-0---0---0---0---0---0-----| 
E---------------------------------------| 
 
 Rpt Main Riff 
 
 Both guitars 
 
   PM   PM PM    PM   
E-------------------| 
B-------------------| 
G-2---2---2---2-(2)-| 
D-2---2---2---2-(2)-| 
A-0-0-0-0-0-0-0-(0)-| 
E-------------------| 
 
 Twin Lead 
 
  Guitar 1 
E{-----------------------------| 
B{-1515151515151515-13-11-13\--| 
G{-----------------------------| 
D{-----------------------------| 
A{-----------------------------| 
E{-----------------------------| 
 {Guitar 2 
E{-----------------------------| 
B{-----------------------------| 
G{-1515151515151515-14-12-14br-| 
D{-----------------------------| 
A{-----------------------------| 
E{-----------------------------| Rpt 3 X 
 
  Guitar 1 
                                        ~~~~~~~~ 
E{-----------------------------------------------| 
B{-15--13--11--13\--15-13-11-----------13------\-| 
G{---------------------------14-12-10------------| 
D{-----------------------------------------------| 
A{-----------------------------------------------|  
E{-----------------------------------------------| 
 { 
 {Guitar 2 
 {                                      ~~~~~~~~ 
E{-------------------------------------12------\-| 
B{-----------------------------------------------| 
G{-15--14--12--14br--15-14-12--------------------| 
D{----------------------------15-14-12-----------| 
A{-----------------------------------------------| 
E{-----------------------------------------------| 
 
 Rpt Verse and twin lead. 
 
 Guitar on own 
 
E----------------------------------------------------------------| 
B----------------------------------------------------------------| 
G-5-5-5-5-555-55/8-8-8-8-888-88\7-7-7-7-777-77\6/77-6/77-6/77-77-| 
D-5-5-5-5-555-55/8-8-8-8-888-88\7-7-7-7-777-77\6/77-6/77-6/77-77-| 
A-3-3-3-3-333-33/6-6-6-6-666-66\5-5-5-5-555-55\4/55-4/55-4/55-55-| 
E----------------------------------------------------------------| 
 
  Guitar 1 
E{----------------------------------------------------------------| 
B{----------------------------------------------------------------| 
G{-5-5-5-5-555-55/8-8-8-8-888-88\7-7-7-7-777-77\6/77-6/77-6/77-77-| 
D{-5-5-5-5-555-55/8-8-8-8-888-88\7-7-7-7-777-77\6/77-6/77-6/77-77-| 
A{-3-3-3-3-333-33/6-6-6-6-666-66\5-5-5-5-555-55\4/55-4/55-4/55-55-| 
E{----------------------------------------------------------------| 
 { 
 {Guitar 2 
E{----------------------------------------------------------------| 
B{----------------------------------------------------------------| 
G{-5-5-5-5---(5)--8-8-8-8---(8)--7-7-7-7------(7)-----------------| 
D{-5-5-5-5---(5)--8-8-8-8---(8)--7-7-7-7------(7)-----------------| 
A{-3-3-3-3---(3)--6-6-6-6---(6)--5-5-5-5------(5)-----------------| 
E{----------------------------------------------------------------| 
 
 Both guitars 
 
E----------------------------------------------------------------| 
B----------------------------------------------------------------| 
G-5-5-5-5-555-55/8-8-8-8-888-88\7-7-7-7-777-77\6/77-6/77-6/77-77-| 
D-5-5-5-5-555-55/8-8-8-8-888-88\7-7-7-7-777-77\6/77-6/77-6/77-77-| 
A-3-3-3-3-333-33/6-6-6-6-666-66\5-5-5-5-555-55\4/55-4/55-4/55-55-| 
E----------------------------------------------------------------| 
 
  Guitar 1 
E{----------------------------------------------------------------| 
B{----------------------------------------------------------------| 
G{-5-5-5-5-555-55/8-8-8-8-888-88\10101010101010/13-----(12)-------| 
D{-5-5-5-5-555-55/8-8-8-8-888-88\10101010101010/13-----(12)-------| 
A{-3-3-3-3-333-33/6-6-6-6-666-66\8-8-8-8-888-88/11-----(11)-------| 
E{----------------------------------------------------------------| 
 {Guitar 2 
E{----------------------------------------------------------------| 
B{----------------------------------------------------------------| 
G{-5-5-5-5-555-55/8-8-8-8-888-88----------------------------------| 
D{-5-5-5-5-555-55/8-8-8-8-888-88-3-3-3-3-333-33/6------(6)--------| 
A{-3-3-3-3-333-33/6-6-6-6-666-66-3-3-3-3-333-33/6------(6)--------| 
E{-------------------------------1-1-1-1-111-11/4------(4)--------| 
 
 Rpt Main Riff 2 X with guitar solo. 
 Rpt Verse 
 
 Ending 
 
E-------------------------------------------------------------------| 
B-------------------------------------------------------------------| 
G-5-----------------------------------------------------------------| 
D-5------Ad lib rock and roll ending--------------------------------| 
A-3-----------------------------------------------------------------| 
E-------------------------------------------------------------------| 
 
E-------------------------------------------------------------------| 
B-------------------------------------------------------------------| 
G-3-----------------------------------------------------------------| 
D-3------Ad lib rock and roll ending----------------Feedback--------| 
A-1-----------------------------------------------------------------| 
E-------------------------------------------------------------------| 
 
E-------| 
B-------| 
G-------| 
D-7\----| 
A-7\----| 
E-5\----| 
 
 
 
 
END 
 
 

	  

Full key step upFull key step up
Half key step upHalf key step up
Half key step downHalf key step down
Full key step downFull key step down
Search Paypal
auto scroll beats size up size down change color hide chords drawings
tab show chords e-chords YouTube Clip e-chords hide all tabs e-chords go to top tab