Iron Maiden

home > Iron Maiden

Blood Brothers (intro) Bass Tab

Iron Maiden

Difficulty: BeginnerBeginner

by puro%5Fmetal

tuner correct add songbook print version text version save to e-mail
chordsukulelecavacokeyboardtabbassdrumsharmonicsflute Guitar Pro
chords

Blood Brothers (intro)

  		Aquí les dejo la introducción, por ahora 


G-----------------------------7----------------12--------12------------14------------- 
D-------9-------9-------5--------5--/--10--------10-----------12---------12------- 
A--7-------7----------------------------------------------------------------------------- 
E------------------------------------------------------------------------------------------ 

G-----------------------------7----------------------------------------------------------- 
D-------9--------9------5--------5-----------5-------5----------7--------------------- 
A--7--------7----------------------------3-------3----------5---------5---------------- 
E------------------------------------------------------------------------------------------ 

Tocar esto 4 vezes 
	  

Search Paypal
auto scroll beats size up size down change color hide chords drawings
tab show chords e-chords YouTube Clip e-chords hide all tabs e-chords go to top tab