Ozzy Osbourne

home > Ozzy Osbourne

No More Tears Bass Tab

Ozzy Osbourne

Difficulty: BeginnerBeginner

by betobassmtuloko

tuner correct add songbook print version text version save to e-mail
chordsukulelecavacokeyboardtabbassdrummharmonicsflute Guitar Pro
chords

No More Tears

Year: 1991 - Album: Prince of Darkness

(Ozzy Osbourne/ Zakk Wylde/ Bob Daisley/ Mije Inez/ Rondy Castillo/ John Sinclair)

	  Afinação: ( C# G# C# F# ) 

Intro 


|-5h7-----5h7-----5h7-----5h7-----5h7-----5h7-----5h7-----5h7----| 
|-----0-0-----0-0-----0-------0-0-----0-0-----0-------0-0-----0-0| 
|----------------------------------------------------------------| 
|----------------------------------------------------------------| 


|-5h7---5h7-----5h7-----5h7--------------------------------------| 
|-----0-----0-0-----0-0-----0------------------------------------| 
|----------------------------------------------------------------| 
|----------------------------------------------------------------| 



Estrofe 1 / Parte A 


|-5h7-5h7-----5h7-----5h7---5h7-----5h7-----5h7---5h7-----5h7----| 
|---------0-0-----0-0-----0-----0-0-----0-0-----0-----0-0-----0-0| 
|----------------------------------------------------------------| 
|----------------------------------------------------------------| 


|-5h7---5h7-----5h7----------------------------------------------| 
|-----0-----0-0-----0-0------------------------------------------| 
|----------------------------------------------------------------| 
|----------------------------------------------------------------| 



|-5h7-5h7-----5h7-----5h7---5h7-----5h7-----5h7---5h7-----5h7----| 
|---------0-0-----0-0-----0-----0-0-----0-0-----0-----0-0-----0-0| 
|----------------------------------------------------------------| 
|----------------------------------------------------------------| 



|-5h7---5h7-----5h7------5h7-------------------------------------| 
|-----0-----0-0-----0-0------0-----------------------------------| 
|----------------------------------------------------------------| 
|----------------------------------------------------------------| 





|-5h7-5h7-----5h7-----5h7---5h7-----5h7-----5h7------------------| 
|---------0-0-----0-0-----0-----0-0-----0-0-----0----------------| 
|----------------------------------------------------------------| 
|----------------------------------------------------------------| 


|-5h7-5h7-----5h7-----5h7---5h7-----5h7--------------------------| 
|---------0-0-----0-0-----0-----0-0-----0-0----------------------| 
|----------------------------------------------------------------| 
|----------------------------------------------------------------| 



|-5h7-5h7-----5h7-----5h7---5h7-----5h7-----5h7------------------| 
|---------0-0-----0-0-----0-----0-0-----0-0-----0----------------| 
|----------------------------------------------------------------| 
|----------------------------------------------------------------| 


|-5h7-5h7-----5h7-----5h7---5h7-----5h7--------------------------| 
|---------0-0-----0-0-----0-----0-0-----0-0----------------------| 
|----------------------------------------------------------------| 
|----------------------------------------------------------------| 



|-5h7-5h7-----5h7-----5h7---5h7-----5h7-----5h7------------------| 
|---------0-0-----0-0-----0-----0-0-----0-0-----0----------------| 
|----------------------------------------------------------------| 
|----------------------------------------------------------------| 


|-5h7-5h7-----5h7-----5h7---5h7-----5h7--------------------------| 
|---------0-0-----0-0-----0-----0-0-----0-0----------------------| 
|----------------------------------------------------------------| 
|----------------------------------------------------------------| 


|-5h7-5h7-----5h7-----5h7---5h7-----5h7--------------------------| 
|---------0-0-----0-0-----0-----0-0-----0-0---5h7-7-7-7-7--------| 
|----------------------------------------------------------------| 
|----------------------------------------------------------------| 


Estrofe 1 / Parte B 


|----------------------------------------------------------------| 
|----------------------------------------------------------------| 
|-5-5-5-5-5-5-5-7\-3/5-5-5-5-5-5-5-8\-3/5-5-5-5-5-5/13-13\-------| 
|----------------------------------------------------------------| 


|-------------14-------------------------------------------------| 
|----------------------------------------------------------------| 
|-5-5-5-5/12-----12\---------------------------------------------| 
|----------------------------------------------------------------| 


|----------------------------------------------------------------| 
|----------------------------------------------------------------| 
|-5-5-5-5-5-5-5-7\-3/5-5-5-5-5-5-5-8\-3/5-5-5-5-5-5/13-13\-------| 
|----------------------------------------------------------------| 


|----------14----------------------------------------------------| 
|-------------14----14\------------------------------------------| 
|-5-5-5/12-------12------7-7-7-7-------8-8-8--8\-----------------| 
|--------------------------------9-7-2-----------3---------------| 



Refrão 

|---7----5---4---3-------------7----5---4---3--------------------| 
|-0----0---0---0-------------0----0---0---0----------------------| 
|----------------------------------------------------------------| 
|-------------------5-6-5-3--------------------5-6-5-3-----------| 

|---7----5---4---3-----------------------------------------------| 
|-0----0---0---0-------------------------------------------------| 
|----------------------------------------------------------------| 
|-------------------5-6-5-3--------------------------------------| 


Estrofe 2 / Parte A 


|-5h7-5h7-----5h7------5h7---5h7-----5h7-------------------------| 
|---------0-0-----0-0------0-----0-0-----0-0--7-7----------------| 
|----------------------------------------------------------------| 
|----------------------------------------------------------------| 



Estrofe 2 / Parte B 



|----------------------------------------------------------------| 
|----------------------------------------------------------------| 
|-----5-5-5-5-5-7\--3/5-5-5-5-5-5-5-8\--3/5-5-5-5---5/13-13\-----| 
|-0-0------------------------------------------------------------| 


|------------7-7-------------------------------------------------| 
|----------7-----7-----------------------------------------------| 
|-5-5-5-5--------------------------------------------------------| 
|----------------------------------------------------------------| 


|----------------------------------------------------------------| 
|----------------------------------------------------------------| 
|-5-5-5-5-5-5-5-7\--3/5-5-5-5-5-5-5-8\--3/5-5-5-5-5/13-13\-------| 
|----------------------------------------------------------------| 



|----------14--14-14--19-19-19-19--------------------------------| 
|-------12-------------------------------------------------------| 
|-5/12----------------------------7-7-7-7--------8-8-8--8\-------| 
|-----------------------------------------9-6-2------------3-----| 


Refrão 


|---7---5---4---3-------------7---5---4---3----------------------| 
|-0---0---0---0-------------0---0---0---0------------------------| 
|----------------------------------------------------------------| 
|------------------5-6-5-3-------------------5-6-5-3-------------| 


|---7---5---4---3-------------7---5---4---3----------------------| 
|-0---0---0---0-------------0---0---0---0------------------------| 
|----------------------------------------------------------------| 
|------------------5-6-5-3-------------------5-6-5-3---0---------| 

Solo guitarra 


|----------------------------------------------------------------| 
|----------------------------------------------------------------| 
|-5-5-5-5-5-5-5-5-5-5-5-5-5-5-5-5--------------------------------| 
|----------------------------------------------------------------| 


|----------------------------------------------------------------| 
|----------------3-----------------------------------------------| 
|-----------3-5----5-3-5--3-5-3-----3----------------------------| 
|--3-3--5-5---------------------3-5------------------------------| 


|----------------------------------------------------------------| 
|--------------3-------3--------------------------3-------3------| 
|---------3-5----5-3-5---5-3-5-3-------------3-5----5-3-5---5-3-5| 
|3-3--5-5------------------------5--3-3--5-5---------------------| 



|----------------------------------------------------------------| 
|----------------------------------------------------------------| 
|-5-3------------------------------------------------------------| 
|-----5-3-3-3-3-3-3-3-3--5-5-5-5-5-5-5-5--7-7-7-7-7-7-7-7--------| 



|----------------------------------------------------------------| 
|----------------------------------------------------------------| 
|----------------------------------------------------------------| 
|-8-8-8-8--10-10-10-10-------------------------------------------| 


Interludio 



|-5h7-----5h7-----5h7---5h7-----5h7-----5h7---5h7-5h7-----5h7-------| 
|-----0-0-----0-0-----0-----0-0-----0-0-----0---------0-0-----0-0---| 
|-------------------------------------------------------------------| 
|-------------------------------------------------------------------| 


|-5h7---5h7-----5h7-----5h7---5h7-----5h7-----5h7---5h7-----5h7-----| 
|-----0-----0-0-----0-0-----0-----0-0-----0-0-----0-----0-0-----0-0-| 
|-------------------------------------------------------------------| 
|-------------------------------------------------------------------| 


|-5h7-5h7-----5h7-----5h7---5h7-----5h7-----5h7---5h7-----5h7-------| 
|---------0-0-----0-0-----0-----0-0-----0-0-----0-----0-0-----0-0---| 
|-------------------------------------------------------------------| 
|-------------------------------------------------------------------| 


|-5h7---5h7-----5h7-----5h7-----------------------------------------| 
|-----0-----0-0-----0-0-----0---------------------------------------| 
|-------------------------------------------------------------------| 
|-------------------------------------------------------------------| 

Estrofe 3 / Parte A 


|-5h7-5h7-----5h7-----5h7---5h7-----5h7------------------------| 
|---------0-0-----0-0-----0-----0-0-----0-0--------------------| 
|--------------------------------------------------------------| 
|--------------------------------------------------------------| 


|-5h7-5h7-----5h7-----5h7---5h7-----5h7-----5h7----------------| 
|---------0-0-----0-0-----0-----0-0-----0-0-----0--------------| 
|--------------------------------------------------------------| 
|--------------------------------------------------------------| 



|-5h7-5h7-----5h7-----5h7---5h7-----5h7------------------------| 
|---------0-0-----0-0-----0-----0-0-----0-0--------------------| 
|--------------------------------------------------------------| 
|--------------------------------------------------------------| 


|-5h7-5h7-----5h7-----5h7---5h7-----5h7-----5h7----------------| 
|---------0-0-----0-0-----0-----0-0-----0-0-----0--------------| 
|--------------------------------------------------------------| 
|--------------------------------------------------------------| 


|-5h7-5h7-----5h7-----5h7---5h7-----5h7------------------------| 
|---------0-0-----0-0-----0-----0-0-----0-0--------------------| 
|--------------------------------------------------------------| 
|--------------------------------------------------------------| 


|-5h7-5h7-----5h7-----5h7---5h7-----5h7------------------------| 
|---------0-0-----0-0-----0-----0-0-----0-0----5h7-7-7-7-7-----| 
|--------------------------------------------------------------| 
|--------------------------------------------------------------| 

x 

|--5h7-----5h7-----5h7---5h7-----5h7---------------------------| 
|------0-0-----0-0-----0-----0-0-----0-0----5h7-7-7-7-7--------| 
|--------------------------------------------------------------| 
|--------------------------------------------------------------| 



Parte B 

|--------------------------------------------------------------| 
|--------------------------------------------------------------| 
|----5-5-5-5-5-7\--3/5-5-5-5-5-5-5-8\--3/5-5-5-5-5/13-13\------| 
|-0------------------------------------------------------------| 


|--------------14----------------------------------------------| 
|-----------------12-------------------------------------------| 
|--5-5-5-5/12--------12\---------------------------------------| 
|--------------------------------------------------------------| 



|--------------------------------------------------------------| 
|--------------------------------------------------------------| 
|5-5-5-5-5-5-5-7\--3/5-5-5-5-5-5-5-8\--3/5-5-5-5-5/13-13\------| 
|--------------------------------------------------------------| 


  
|--------------14-19-------------------------------------------| 
|----------12--------------------------------------------------| 
|-5-5-5/12-----------7-7-7-7--------8-8-8--8\------------------| 
|----------------------------9-6-2------------3----------------| 

Refrão 


|---7----5---4---3-------------7----5---4---3------------------| 
|-0----0---0---0-------------0----0---0---0--------------------| 
|--------------------------------------------------------------| 
|-------------------5-6-5-3--------------------5-6-5-3---------| 


|---7----5---4---3-------------7----5---4---3------------------| 
|-0----0---0---0-------------0----0---0---0--------------------| 
|--------------------------------------------------------------| 
|-------------------5-6-5-3--------------------5-6-5-3---------| 


|--------------------------------------------------------------| 
|--------------------------------------------------------------| 
|---5---3---2---1--------------5---3---2---1-------------------| 
|-0---0---0---0-----5-6-5-3--0---0---0---0-----5-6-5-3---------| 



|--------------------------------------------------------------| 
|--------------------------------------------------------------| 
|---5---3---2---1--------------5---3---2---1-------------------| 
|-0---0---0---0-----5-6-5-3--0---0---0---0-----5-6-5-3---0-----| 



|--------------------------------------------------------------| 
|--------------------------------------------------------------| 
|---5---3---2---1----------------------------------------------| 
|-0---0---0---0-----5-6-5-3---0--------------------------------| 


	  

there isn't a video lesson for this song

request
Full key step upFull key step up
Half key step upHalf key step up
Half key step downHalf key step down
Full key step downFull key step down
Search
auto scroll beats size up size down change color hide chords drawings
tab show chords e-chords YouTube Clip e-chords hide all tabs e-chords go to top tab