Iron Maiden

home > Iron Maiden

Fear of the dark (ver.3) Tab

Iron Maiden

Difficulty: ExpertExpert

by LucasJF+metal

tuner correct add songbook print version text version save to e-mail
chordsukulelecavacokeyboardtabbassdrumsharmonicsflute Guitar Pro
chords

Fear of the dark (ver.3)

  		h - hammer-on  
p - pull-off  
/ - slide  
^ - half bend  
^^ - full bend  
~  - vibrato  
 
 
Introdução: 
 
E|---------------------------------|-----------------------------------------  
B|---------------------------------|---------------5-5---------5-------------  
G|-7-----7-7-9-9-10-10-9-9-7-7-9-9-/-5-----5-5-7-7-----7-7-5-5---5-----------  
D|---7-7---------------------------|---5-5-----------------------------------  
A|---------------------------------|-----------------------------------------  
E|---------------------------------|-----------------------------------------  
(Duas vezes) 
 
E|-----------------------------------|---------------------------------------  
B|-----------------------------------|---------------------------------------  
G|-----------------------------------|-----------------4-4---------5---------  
D|-7-7-----7-7-9-9-10-10-9-9-7-7-9-9-/-5-5-----5-5-7-7-----7-7-5-5---5-------  
A|-----7-7---------------------------|-----5-5-------------------------------  
E|-----------------------------------|---------------------------------------  
(duas vezes) 
E|-----------------------------------|---------------------------------------  
B|-----------------------------------|---------------------------------------  
G|-----------------------------------|-----------------2-2---------3---------  
D|-7-7-----7-7-9-9-10-10-9-9-7-7-9-9-/-3-3-----3-3-5-5-----5-5-3-3---3~~~----  
A|-----7-7---------------------------|-----3-3-------------------------------  
E|-----------------------------------|---------------------------------------  
(duas vezes) 
Verso: D Bb C  
 
       O Bruce começa a cantar:  
 
(por o exemplo C:)  
 
E|-------------------|  
B|----5---5---5---5--|  
G|------5---5---5----|  
D|--3----------------|  
A|-------------------|  
E|-------------------|  
 
 

	  

Full key step upFull key step up
Half key step upHalf key step up
Half key step downHalf key step down
Full key step downFull key step down
Search Paypal
auto scroll beats size up size down change color hide chords drawings
tab show chords e-chords YouTube Clip e-chords hide all tabs e-chords go to top tab