Iron Maiden

home > Iron Maiden

Blood Brothers Acoustic Tab Tab

Iron Maiden

Difficulty: BeginnerBeginner

by europeu

tuner correct add songbook print version text version save to e-mail
chordsukulelecavacokeyboardtabbassdrumsharmonicsflute Guitar Pro
chords

Blood Brothers Acoustic Tab

  		INTRO: 
repeat this 3x 
e|----------------------------------------------| 
B|----------------------------------------------| 
G|----------------------------------------------| 
D|-----2--------5-------10-----------12---------| 
A|---2---2----5------10----10-----12------------| 
E|-0--------3------8-----------10---------------| 

e|----------------------------------------------| 
B|----------------------------------------------| 
G|---------------------7--------5---------------| 
D|-----2--------5----7---7----5---5-------------| 
A|---2---2----5----5--------3-------------------| 
E|-0--------3-----------------------------------| 


RIFF1: 
e|---------8---7----7--------------------------| 
B|---------------10----10-8-10-8-7-------------| 
G|-9--7-9--------------------------------------| 
D|---------------------------------------------| 
A|---------------------------------------------| 
E|---------------------------------------------| 

e|---------8---7----7---------------------------| 
B|---------------10----10-8-7-8-7---------------| 
G|-9--7-9---------------------------------------| 
D|----------------------------------------------| 
A|----------------------------------------------| 
E|----------------------------------------------| 

vers: 

e|--------------------------------------------| 
B|--------------------------------------------| 
G|--------------------------------------------| 
D|---9---9-----------------5---5------7--7--7-| 
A|-7---7---7----5---5----3---3---3---5--5--5--| 
E|------------3---3---3-----------------------|x4 

omkvæd: (4x) 
           Em       C G D 
We're blood brothers 


vers: 

e|--------------------------------------------| 
B|--------------------------------------------| 
G|--------------------------------------------| 
D|---9---9-----------------5---5------7--7--7-| 
A|-7---7---7----5---5----3---3---3---5--5--5--| 
E|------------3---3---3-----------------------|x4 


omkvæd: (4x) 
           Em       C G D 
We're blood brothers 

RIFF1: 
e|---------8---7----7--------------------------| 
B|---------------10----10-8-10-8-7-------------| 
G|-9--7-9--------------------------------------| 
D|---------------------------------------------| 
A|---------------------------------------------| 
E|---------------------------------------------| 

e|---------8---7----7---------------------------| 
B|---------------10----10-8-7-8-7---------------| 
G|-9--7-9---------------------------------------| 
D|----------------------------------------------| 
A|----------------------------------------------| 
E|----------------------------------------------| 

e|---------------------------------------------| 
B|---------------------------------------------| 
G|-9----------0---0----------------------------| 
D|-9-----5----2---4----------------------------| 
A|-7-----5----3---5----------------------------| 
E|-------3-------------------------------------| 

e|-7-----3----0---0----------------------------| 
B|-8-----3----1---3----------------------------| 
G|-9-----4----0---0----------------------------| 
D|-9-----5----2---4----------------------------| 
A|-7-----5----3---5----------------------------| 
E|-------3-------------------------------------| 

e|---------------------------------------------| 
B|---------------------------------------------| 
G|----4--2--4-----5--4--2--0-------------------| 
D|-2-------------------------------------------| 
A|---------------------------------------------| 
E|---------------------------------------------| 

e|---------------------------------------------| 
B|---------------------------------------------| 
G|---------------------------------------------| 
D|---9---9---9---9----14----14----12----12-----| 
A|-7---7---7---7---12----12----10----10--------| 
E|---------------------------------------------| 


                  3x 
|---------------------------------------------| 
B|--------------------------------------------| 
G|--------------------------------------------| 
D|---9---9---9---9----14----14----12----12----| 
A|-7---7---7---7---12----12----10----10-------| 
E|--------------------------------------------| 

          2x 
e|------------------|-----------------------| 
B|------------------|-----------------------| 
G|------------------|-----------------------| 
D|---5---5---7---7--|---9---9---9---9-------| 
A|-3---3---5---5----|-7---7---7---7---------| 
E|------------------|-----------------------| 


e|-------------------7-10---7----7-----------7-| 
B|---7-8-7-8-10-8-10----------10-----10-8-10---| 
G|-9-------------------------------------------| 
D|---------------------------------------------| 
A|---------------------------------------------| 
E|---------------------------------------------| 

e|----7-10---7----7----------------------------| 
B|-10----------10-----10-8-10------------------| 
G|---------------------------------------------| 
D|---------------------------------------------| 
A|---------------------------------------------| 
E|---------------------------------------------| 

e|------7--------------------------------------| 
B|-8-10-----10-8-10---8-7----------------------| 
G|------------------------9--------------------| 
D|---------------------------------------------| 
A|---------------------------------------------| 
E|---------------------------------------------| 

e|---------------------------------------------| 
B|---7-8---7---7-------------------------------| 
G|-9---------9-----9-7-9-----------------------| 
D|-----------------------9---------------------| 
A|---------------------------------------------| 
E|---------------------------------------------| 

e|---------------------------------------------| 
B|---7-8---7---7-------------------------------| 
G|-9---------9-----9-7-9-----------------------| 
D|---------------------------------------------| 
A|---------------------------------------------| 
E|---------------------------------------------| 

e|---------------------------------------------| 
B|---7-8---7---------7-------------------------| 
G|-9---------9-7---9---9-----------------------| 
D|---------------------------------------------| 
A|---------------------------------------------| 
E|---------------------------------------------| 


 e|-------------12--14--14b---14-12-------12-14--12--17b------| 
 B|-15b-15b-15b-15b-----------------------15------------------| 
 G|-----------------------------------------------------------| 
 D|-----------------------------------------------------------| 
 A|-----------------------------------------------------------| 
 E|-----------------------------------------------------------| 

 e|--17b---17-15--14---15-14----------12--14--14b---14-12-----| 
 B|---------------------------15v--------------------------15-| 
 G|-----------------------------------------------------------| 
 D|-----------------------------------------------------------| 
 A|-----------------------------------------------------------| 
 E|-----------------------------------------------------------| 


 e|12-14--12----------12--------------| 
 B|---------------15b-----15-12----12-| 
 G|-----------------------------15----| 
 D|-----------------------------------| 
 A|-----------------------------------| 
 E|-----------------------------------| 


 e|---------------------------------------------| 
 B|----------------15b--15--15b-----------------| 
 G|-15-14-12----12------------------------------| 
 D|----------14---------------------------------| 
 A|---------------------------------------------| 
 E|---------------------------------------------| 


 e|-17b-----17r-15p14-15p14-15p14-----14-15-17-15p14---| 
 B|---------------------------------15-----------------| 
 G|----------------------------------------------------| 
 D|----------------------------------------------------| 
 A|----------------------------------------------------| 
 E|----------------------------------------------------| 


 e|----14-15p14----14-17b--17-15-14h15-14----14-----------| 
 B|-15----------15------------------------15-----17v------| 
 G|-------------------------------------------------------| 
 D|-------------------------------------------------------| 
 A|-------------------------------------------------------| 
 E|-------------------------------------------------------| 

 e|-----------------------    |-------------| 
 B|-15b-----r-12----------    |-------------| 
 G|--------------15p14p12-    |----------12-| 
 D|-----------------------    |-14-12-14----| 
 A|-----------------------    |-------------| 
 E|-----------------------    |-------------| 

omkvæd: (4x) 
           Em       C G D 
We're blood brothers 


RIFF1: 
e|---------8---7----7--------------------------| 
B|---------------10----10-8-10-8-7-------------| 
G|-9--7-9--------------------------------------| 
D|---------------------------------------------| 
A|---------------------------------------------| 
E|---------------------------------------------| 

e|---------8---7----7---------------------------| 
B|---------------10----10-8-7-8-7---------------| 
G|-9--7-9---------------------------------------| 
D|----------------------------------------------| 
A|----------------------------------------------| 
E|----------------------------------------------| 
	  

Full key step upFull key step up
Half key step upHalf key step up
Half key step downHalf key step down
Full key step downFull key step down
Search Paypal
auto scroll beats size up size down change color hide chords drawings
tab show chords e-chords YouTube Clip e-chords hide all tabs e-chords go to top tab