Iron Maiden

home > Iron Maiden

Ghost of the Navigator (ver. 2) Tab

Iron Maiden

Difficulty: ExpertExpert

by wickedman

tuner correct add songbook print version text version save to e-mail
chordsukulelecavacokeyboardtabbassdrumsharmonicsflute Guitar Pro
chords

Ghost of the Navigator (ver. 2)

  		Introdução 
 
  Dm                  Csus2       Dm                  Csus2   Fsus4/Bb               Fsus4/Bb         C5    Dm                  Csus2 
  Gtr I 
|-----5-------------|-----------|-----5-------------|-------|----------------------|----------------------|-----5-------------|-------| 
|-------8-----6-5-6-|-----------|-------8-----6-5-6-|--5----|----8-----6-----5-----|----8-----6-----5-----|-------8-----6-5-6-|-------| 
|--7----------------|--5--------|--7----------------|-------|------------------7-5-|------------------7-5-|--7----------------|--5----| 
|-------------------|-----------|-------------------|-------|--8-------------------|--8-------------------|-------------------|-------| 
|-------------------|-----------|-------------------|-------|----------------------|----------------------|-------------------|-------| 
|-------------------|-----------|-------------------|-------|----------------------|----------------------|-------------------|-------| 
| 
| Gtr II 
|-^5----------------|-^3--------|-^5----------------|-^3----|-^1-------------------|-^1-------------------|-^5----------------|-^3----| 
|-^6----------------|-^3--------|-^6----------------|-^3----|-^1-------------------|-^1-------------------|-^5----------------|-^3----| 
|-^7----------------|-^5--------|-^7----------------|-^5----|-^3-------------------|-^3---------------5-5-|-^7----------------|-^5----| 
|-^7----------------|-^5--------|-^7----------------|-^5----|-^3-------------------|-^3---------------5-5-|-^7----------------|-^5----| 
|-^5----------------|-^3--------|-^5----------------|-^3----|-^1-------------------|-^1---------------3-3-|-^5----------------|-^3----| 
|-------------------|-----------|-------------------|-------|----------------------|----------------------|-------------------|-------| 
 
 
Essa parte é tocada um pouco mais rápido 
  
    Dm                    Fsus4/Bb              Csus2                 Dm 
||----------------------|---------------------|---------------------|-----------------------|| 
||o---8-----6-----5-----|---8-----6-----5-----|---8-----6-----5-----|---5-----6-----8-6-5--o|| 
||--7---------------7-5-|-----------------7-5-|-----------------7-5-|-7---------------------|| 
||----------------------|-8-------------------|-5-------------------|-----------------------|| 
||o---------------------|---------------------|---------------------|----------------------o|| 
||----------------------|---------------------|---------------------|-----------------------|| 
| 
||--5-5--5--5--5--5-5---|-1-1--1--1--1--1-1---|-3-3--3--3--3--3-3---|-5-5--5--5--5--5-5-----|| 
||o-6-6--6--6--6--6-6---|-1-1--1--1--1--1-1---|-3-3--3--3--3--3-3---|-6-6--6--6--6--6-6----o|| 
||--7-7--7--7--7--7-7---|-3-3--3--3--3--3-3---|-5-5--5--5--5--5-5---|-7-7--7--7--7--7-7-----|| 
||--7-7--7--7--7--7-7---|-3-3--3--3--3--3-3---|-5-5--5--5--5--5-5---|-7-7--7--7--7--7-7-----|| 
||o-5-5--5--5--5--5-5---|-1-1--1--1--1--1-1---|-3-3--3--3--3--3-3---|-5-5--5--5--5--5-5----o|| 
||----------------------|---------------------|---------------------|-----------------------|| 
 
 
    D5                 Bb/D               C/D                G5/D Bb/D  C/E 
||-------------------|------------------|------------------|-----6-----8-----|| 
||o-^3---------------|-^3---------------|-^5---------------|-8---6-----8----o|| 
||--^2---------------|-^3---------------|-^5---------------|-7---7-----9-----|| 
||--^0---------------|-^0---------------|-^0---------------|-0---------------|| 
||o------------------|------------------|------------------|----------------o|| 
||-------------------|------------------|------------------|-----------------|| 
| 
|   Gtr V 
||-------------------|------------------|------------------|-----6-----8-----|| 
||o--3-3-3-3-3-3-3-3-|--3-3-3-3-3-3-3-3-|--5-5-5-5-5-5-5-5-|-8---6-----8----o|| 
||---2-2-2-2-2-2-2-2-|--3-3-3-3-3-3-3-3-|--5-5-5-5-5-5-5-5-|-7---7-----9-----|| 
||---0-0-0-0-0-0-0-0-|--0-0-0-0-0-0-0-0-|--0-0-0-0-0-0-0-0-|-0---------------|| 
||o------------------|------------------|------------------|----------------o|| 
||-------------------|------------------|------------------|-----------------|| 
 
 
    D5                           Bb/D                         C/D                          C/D D5    C/D 
||-----------------------------|----------------------------|----------------------------|-----------------|| 
||o-3--------------------------|-3--------------------------|-5--------------------------|-5---3-----5----o|| 
||--2--------------------------|-3--------------------------|-5--------------------------|-5---2-----5-----|| 
||--0--0-0-0-0-0-0-0-0-0-0-0-0-|-0--0-0-0-0-0-0-0-0-0-0-0-0-|-0--0-0-0-0-0-0-0-0-0-0-0-0-|-0---0-----0-----|| 
||o----------------------------|----------------------------|----------------------------|----------------o|| 
||-----------------------------|----------------------------|----------------------------|-----------------|| 
 
 
Riff 1 
 
    D5                           Bb/D                         C/D                          C/D D5    C/D 
||-----------------------------|----------------------------|----------------------------|-----------------|| 
||o-3--------------------------|-3--------------------------|-5--------------------------|-5---3-----5----o|| 
||--2--------------------------|-3--------------------------|-5--------------------------|-5---2-----5-----|| 
||--0--0-0-0-0-0-0-0-0-0-0-0-0-|-0--0-0-0-0-0-0-0-0-0-0-0-0-|-0--0-0-0-0-0-0-0-0-0-0-0-0-|-0---0-----0-----|| 
||o----------------------------|----------------------------|----------------------------|----------------o|| 
||-----------------------------|----------------------------|----------------------------|-----------------|| 
 
 
 
Verse 1: sobre o Riff 1 
 
D5                 Bb/D 
I have sailed to many lands 
      C/D                  D5  C/D 
Now I make my final journey 
D5           Bb/D     C/D               D5  C/D 
  On the bow I stand, west is where I go 
D5                  Bb/D 
  Through the night I plough 
C/D                  D5   C/D     D5 
Still my heart, calculate and pray 
          Bb/D           C/D 
As the compass swings my will is strong 
 
 
Riff 2 
 
    A5                C5 
|-----------------|-----------------| 
|-----------------|-----------------| 
|-----------------|-5-5-5-5-5-5-5-5-| 
|-7-7-7-7-7-7-7-7-|-5-5-5-5-5-5-5-5-| 
|-7-7-7-7-7-7-7-7-|-3-3-3-3-3-3-3-3-| 
|-5-5-5-5-5-5-5-5-|-----------------| 
 
 
  B5                D5    C5    B5    A5 
|-----------------|-----------------|-----------------| 
|-----------------|-----------------|-----------------| 
|-4-4-4-4-4-4-4-4-|-7-7-7-5-5-5-4-4-|-----------------| 
|-4-4-4-4-4-4-4-4-|-7-7-7-5-5-5-4-4-|-7-7-7-7-7-7-7-7-| 
|-2-2-2-2-2-2-2-2-|-5-5-5-3-3-3-2-2-|-7-7-7-7-7-7-7-7-| 
|-----------------|-----------------|-5-5-5-5-5-5-5-5-| 
 
 
  C5                B5                D5    C5    B5 
|-----------------|-----------------|-----------------| 
|-----------------|-----------------|-----------------| 
|-5-5-5-5-5-5-5-5-|-4-4-4-4-4-4-4-4-|-7-7-7-5-5-5-4-4-| 
|-5-5-5-5-5-5-5-5-|-4-4-4-4-4-4-4-4-|-7-7-7-5-5-5-4-4-| 
|-3-3-3-3-3-3-3-3-|-2-2-2-2-2-2-2-2-|-5-5-5-3-3-3-2-2-| 
|-----------------|-----------------|-----------------| 
 
 
                        Começe o riff 2 aqui 
              D5  C/D   A5   C5  B5 
I will not be led a____stray 
D5   C5    B5   A5   C5  B5 
Mys__teries  of time 
  
                        Riff w/ fills 
D5     C5   B5          A5  C5  B5  D5  C5 
clouds that    hide the sun 
    B5  A5          C5          B5   D5  C5  B5 
But I   know, but I know, but I know 
 
 
 
Riff w/ fills 
 
  A5                  C5                  B5                  D5    C5    B5    A5                  C5 
|-------------------|-------------------|-------------------|-----------------|-------------------|-------------------| 
|-------------------|-------------------|-------------------|-----------------|-------------------|-------------------| 
|-------------------|-5-5-5-5--5--5-5-5-|-4-4-4-4--4--4-4-4-|-7-7-7-5-5-5-4-4-|-------------------|-5-5-5-5--5--5-5-5-| 
|-7-7-7-7--7--7-7-7-|-5-5-5-5--5--5-5-5-|-4-4-4-4--4--4-4-4-|-7-7-7-5-5-5-4-4-|-7-7-7-7--7--7-7-7-|-5-5-5-5--5--5-5-5-| 
|-7-7-7-7--7--7-7-7-|-3-3-3-3--3--3-3-3-|-2-2-2-2--2--2-2-2-|-5-5-5-3-3-3-2-2-|-7-7-7-7--7--7-7-7-|-3-3-3-3--3--3-3-3-| 
|-5-5-5-5--5--5-5-5-|-------------------|-------------------|-----------------|-5-5-5-5--5--5-5-5-|-------------------| 
| 
| 
|-------------------|-------------------|-------------------|-----------------|-------------------|-------------------| 
|-------------------|-------------------|-------------------|-----------------|-------------------|-------------------| 
|-----5-4-----------|-----5-4-----------|-----5-4-----------|-7-7-7-5-5-5-4---|-----5-4-----------|-----5-4-----------| 
|-------------7-----|-------------7-----|-------------5---5-|-----------------|-------------7-----|-------------7-----| 
|-7-7---------------|-7-7---------------|-7-7---------------|-----------------|-7-7---------------|-7-7---------------| 
|-------------------|-------------------|-------------------|-----------------|-------------------|-------------------| 
 
 
  B5                  D5    C5    B5 
|-------------------|-----------------| 
|-------------------|-----------------| 
|-4-4-4-4--4--4-4-4-|-7-7-7-5-5-5-4-4-| 
|-4-4-4-4--4--4-4-4-|-7-7-7-5-5-5-4-4-| 
|-2-2-2-2--2--2-2-2-|-5-5-5-3-3-3-2-2-| 
|-------------------|-----------------| 
| 
|             ~                   ~ 
|-------------------|-----------------| 
|-------------------|-----------------| 
|-----5-4-----------|-7-7-7-5-5-5-4---| 
|-------------5---5-|-----------------| 
|-7-7---------------|-----------------| 
|-------------------|-----------------| 
 
 
 
Pre-Chorus Riff 
 
  E5          G5           C5         A5         E5        G5            C5        A5   B5 
||----------|------------|----------|----------|----------|------------|---------|----------|| 
||----------|------------|----------|----------|----------|------------|---------|----------|| 
||-9----9---|-12----12---|-5----5---|----------|-9----9---|-12----12---|-5-------|----------|| 
||-9----9---|-12----12---|-5----5---|-7----7---|-9----9---|-12----12---|-5-------|-7----9---|| 
||-7----7---|-10----10---|-3----3---|-7----7---|-7----7---|-10----10---|-3-------|-7----9---|| 
||-0----0---|------------|----------|-5----5---|-0----0---|------------|---------|-5----7---|| 
 
 
Pre-Chorus 
 
E5  E5      G5        G5  C5    C5 
  I see the ghosts of navigators 
    A5       A5 
But they are lost 
E5  E5      G5     G5     C5    C5 
    As they sail into the sunset 
        A5        B5 
They'll count the cost 
E5  E5        G5       G5    C5   C5 
    As their skeletons    accusing 
 A5    A5       E5  E5 
Emerge from the sea 
    G5     G5         C5  C5       A5     B5 
The sirens of the rocks,      they beckon me 
 
 
 
Chorus 
 
  D5                              C5                             D5                              C5 
|------5---------|---------------|---------------|--------------|-----5---------|---------------|---------------|--------------| 
|-------------8--|------6--5---6-|---------------|--------------|------------8--|------6--5--6--|-5-------------|--------------| 
|-7--------------|---------------|-5-------------|--------------|-7-------------|---------------|---------------|--------------| 
|----------------|---------------|---------------|--------------|---------------|---------------|---------------|--------------| 
|----------------|---------------|---------------|--------------|---------------|---------------|---------------|--------------| 
|----------------|---------------|---------------|--------------|---------------|---------------|---------------|--------------| 
|                                                                                                                                
| Gtrs III, IV                                                                                                                   
|----------------|---------------|---------------|--------------|---------------|---------------|---------------|--------------| 
|----------------|---------------|---------------|--------------|---------------|---------------|---------------|--------------| 
|-7----7------7--|------7--7-----|-5---5------5--|------5--5----|-7---7------7--|------7--7-----|-5---5------5--|------5--5----| 
|-7----7------7--|------7--7-----|-5---5------5--|------5--5----|-7---7------7--|------7--7-----|-5---5------5--|------5--5----| 
|-5----5------5--|------5--5-----|-3---3------3--|------3--3----|-5---5------5--|------5--5-----|-3---3------3--|------3--3----| 
|----------------|---------------|---------------|--------------|---------------|---------------|---------------|--------------| 
  Take my     heart    and set it  free                           Car_ried   for_____ward by the  waves 
 
 
  Bb5                                                                D5                                 C5 
|---------------|---------------|---------------|------------------|-----5---------|------------------|---------------|--------------| 
|-----8------6--|------5--------|-----8------6--|------5-----------|------------8--|------6----5---6--|---------------|--------------| 
|---------------|---------7--5--|---------------|------------7--5--|-7-------------|------------------|-5-------------|--------------| 
|-8-------------|---------------|-8-------------|------------------|---------------|------------------|---------------|--------------| 
|---------------|---------------|---------------|------------------|---------------|------------------|---------------|--------------| 
|---------------|---------------|---------------|------------------|---------------|------------------|---------------|--------------| 
|                                                                                                                                  
|---------------|---------------|---------------|------------------|---------------|------------------|---------------|--------------| 
|---------------|---------------|---------------|------------------|---------------|------------------|---------------|--------------| 
|-3---3------3--|------3--3-----|-3---3------3--|------3-----3-----|-7---7------7--|------7----7------|-5---5------5--|------5--5----| 
|-3---3------3--|------3--3-----|-3---3------3--|------3-----3-----|-7---7------7--|------7----7------|-5---5------5--|------5--5----| 
|-1---1------1--|------1--1-----|-1---1------1--|------1-----1-----|-5---5------5--|------5----5------|-3---3------3--|------3--3----| 
|---------------|---------------|---------------|------------------|---------------|------------------|---------------|--------------| 
  No__where  left      to run,    Na__vi_____ga________tor's son     Cha_sing   Rain______bows all my   days 
 
 
  D5                                C5                             D5                                 C5 
|-------5---------|---------------|---------------|--------------|-----5---------|------------------|---------------|--------------| 
|--------------8--|------6--5---6-|---------------|--------------|------------8--|------6--5-----6--|-5-------------|--------------| 
|-7---------------|---------------|-5-------------|--------------|-7-------------|------------------|---------------|--------------| 
|-----------------|---------------|---------------|--------------|---------------|------------------|---------------|--------------| 
|-----------------|---------------|---------------|--------------|---------------|------------------|---------------|--------------| 
|-----------------|---------------|---------------|--------------|---------------|------------------|---------------|--------------| 
|                                                                                                                                
|-----------------|---------------|---------------|--------------|---------------|------------------|---------------|--------------| 
|-----------------|---------------|---------------|--------------|---------------|------------------|---------------|--------------| 
|-7-----7------7--|------7--7-----|-5---5------5--|------5--5----|-7---7------7--|------7--7--------|-5---5------5--|------5--5----| 
|-7-----7------7--|------7--7-----|-5---5------5--|------5--5----|-7---7------7--|------7—7---------|-5---5------5--|------5--5----| 
|-5-----5------5--|------5--5-----|-3---3------3--|------3--3----|-5---5------5--|------5--5--------|-3---3------3--|------3--3----| 
|-----------------|---------------|---------------|--------------|---------------|------------------|---------------|--------------| 
  Where I      go        I  do  not know                        I  on__ly     know     the place I've been 
 
 
  Bb5                                                                   D5                                C5 
|------------------|---------------|---------------|-----------------|-----5----------|----------------|---------------|-----------| 
|--------8------6--|------5--------|-----8------6--|------5----------|-------------8--|------6--5---6--|---------------|-----------| 
|------------------|---------7--5--|---------------|-----------7--5--|-7--------------|----------------|-5-------------|-----------| 
|-8----------------|---------------|-8-------------|-----------------|----------------|----------------|---------------|-----------| 
|------------------|---------------|---------------|-----------------|----------------|----------------|---------------|-----------| 
|------------------|---------------|---------------|-----------------|----------------|----------------|---------------|-----------| 
|                                                                                                                                  
|------------------|---------------|---------------|-----------------|----------------|----------------|---------------|-----------| 
|------------------|---------------|---------------|-----------------|----------------|----------------|---------------|-----------| 
|-3------3------3--|------3--3-----|-3---3------3--|------3----3-----|-7---7-------7--|------7--7------|-5---5------5--|------5--5-| 
|-3------3------3--|------3--3-----|-3---3------3--|------3----3-----|-7---7-------7--|------7--7------|-5---5------5--|------5--5-| 
|-1------1------1--|------1--1-----|-1---1------1--|------1----1-----|-5---5-------5--|------5--5------|-3---3------3--|------3--3-| 
|------------------|---------------|---------------|-----------------|----------------|----------------|---------------|-----------| 
  Dreams they   come     and go,     e___ver    shall     be   so      No__thing's real      un_til you  feel 
 
 
 
Vers2 2 – sobre o Riff 1 
 
   D5                  Bb/D 
I steer between the crashing rocks, 
    C/D                D5  C/D 
The sirens call my name 
D5                     Bb/D 
Lash my hands onto the helm, 
      C/D                    D5  C/D  D5 
Blood surging with the strain 
                Bb/D 
I will not fail now 
   C/D 
as sunrise comes 
             D5   C/D   D5 
the darkness left behind 
 
                                            Começe o Rff 2 aqui 
        Bb/D   C/D                D5  C/D   A5  C5  B5 
For eternity I follow on there is no  other way 
D5   C5    B5   A5   C5  B5 
Mys__teries  of time 
  
                        Riff w/ fills 
D5     C5   B5          A5  C5  B5  D5  C5 
clouds that    hide the sun 
    B5  A5          C5          B5   D5  C5  B5 
But I   know, but I know, but I know 
 
 
Repita: Pre-Chorus 
 
Repita: Chorus 
 
 
4:35 – Solo: Janick Gers sobre a sequência (D5  Bb/D  C/D   C/D D5 C/D) 
 
 
Guitar Break 
                                                              1.                 2. 
                                                          C5        D5            C5    D5 
||------------------|-------------------|-------------------|------------------||-----------------| 
||o-----------------|-------------------|-------------------|-----------------o||-----------------| 
||------5-5-4-------|-------5-5-4-------|-------5-5-4-----5-|-------7----------||-------7---------| 
||------------5-----|-------------5-----|-------------5---5-|-------7----------||-------7---------| 
||o-7-7---------5-7-|-----7---------5-7-|-----7---------5-3-|-------5-------7-o||-------5-------5-| 
||------------------|-------------------|-------------------|------------------||-----------------| 
 
 
                                                                1.                 2. 
    D5                  D5                  D5              Bb5       C5            Bb5   C5 
||--------------------|-------------------|-------------------|------------------||-----------------| 
||o-------------------|-------------------|-------------------|-----------------o||-----------------| 
||--------3-3-2-------|-------3-3-2-------|-------3-3-2-----3-|-------5----------||-------5---------| 
||--------------3-----|-------------3-----|-------------3---3-|-------5----------||-------5---------| 
||o-----5---------3-5-|-----5---------3-5-|-----5---------3-1-|-------3-------5-o||-------3-------9-| 
||--------------------|-------------------|-------------------|------------------||-----------------| 
 
 
                                                                1.                 2. 
                                                            D5        E5            D5    E5 
||--------------------|-------------------|-------------------|------------------||-----------------| 
||o-------------------|-------------------|-------------------|-----------------o||-----------------| 
||--------7-7-6-------|-------7-7-6-------|-------7-7-6-----7-|-------9----------||-------9---------| 
||--------------7-----|-------------7-----|-------------7---7-|-------9----------||-------9---------| 
||o-----9---------7-9-|-----9---------7-9-|-----9---------7-5-|-------7-------9-o||-------7-------7-| 
||--------------------|-------------------|-------------------|------------------||-----------------| 
 
 
                                                              1.                 2. 
                                                          C5        D5            C5    D5 
||--------------------|-------------------|-------------------|------------------||-----------------| 
||o-------------------|-------------------|-------------------|-----------------o||-----------------| 
||--------5-5-4-------|-------5-5-4-------|-------5-5-4-----5-|-------7----------||-------7---------| 
||--------------5-----|-------------5-----|-------------5---5-|-------7----------||-------7---------| 
||o-----7---------5-7-|-----7---------5-7-|-----7---------5-3-|-------5-------7-o||-------5---------| 
||--------------------|-------------------|-------------------|------------------||-----------------| 
 
 
Repita: Pre-Chorus 
 
Repita: Chorus e então 
 
 
Final 
 
  C5                       D5   
|------5-----|---------------|------------|--------*| 
|---------8--|------6--5--6--|------------|--------*| 
|-7----------|---------------|--7---------|--------*| 
|------------|---------------|------------|--------*| 
|------------|---------------|------------|--------*| 
|------------|---------------|------------|--------*| 
| 
| Gtrs IV, V 
|------------|---------------|------------|--------*| 
|------------|---------------|------------|--------*| 
|-7----------|---------------|------------|--------*| 
|-7----------|---------------|------------|--------*| 
|-5----------|---------------|------------|--------*| 
|------------|---------------|------------|--------*| 
  Oh   oh ooooh     oh oh oh    oooooooooooohhhhh 
 

	  

Full key step upFull key step up
Half key step upHalf key step up
Half key step downHalf key step down
Full key step downFull key step down
Search Paypal
auto scroll beats size up size down change color hide chords drawings
tab show chords e-chords YouTube Clip e-chords hide all tabs e-chords go to top tab