Iron Maiden

home > Iron Maiden

The Wicker Man Tab

Iron Maiden

Difficulty: ExpertExpert

by Baquit

tuner correct add songbook print version text version save to e-mail
chordsukulelecavacokeyboardtabbassdrumsharmonicsflute Guitar Pro
chords

The Wicker Man

Year: 2000 - Album: The Essential Iron Maiden

  		  


 Introdução / Versos (Guitarra 1) 


 e|-------------------------------------------------------------| 
 B|-------------------------------------------------------------| 
 G|-------------------------------------------------------------| 
 D|---9-9------------9-9-----------9-9-----------5-5--12-12-9-9-| 
 A|---7-7------------7-7-----------7-7-----------3-3--10-10-7-7-| 
 E|-0-----0-0-0-0-0------0-0-0-0-0----0-0-0-0-0-0---------------| 


 Introdução (Guitarra 2) 


 e|-------------------------------------------------------------| 
 B|-------------------------------------------------------------| 
 G|-------------------------------------------------------------| 
 D|--9--9----------9--9----------9--9----------5-5--12-12-------| 
 A|--7--7----------7--7----------7--7----------3-3--10-10-------| 
 E|-------------------------------------------------------------|  


 Pré-refrão 


 e|-------------------------------------------------------------| 
 B|-------------------------------------------------------------| 
 G|-------------------------------------------------------------| 
 D|-7--9--5---12-12--11--9--7--9--5-------5-5-------------------| 
 A|-5--7--3---10-10--9---7--5--7--3--5-5--3-3-------------------| 
 E|----------------------------------3-3------------------------| (2x) 


 Refrão  (guitarra 1) 



 e|-------------------------------------------------------------| 
 B|----12-10-12-10-12---------------12-10-12-10-12--------------| 
 G|--------------------12---------------------------12----------| 
 D|-------------------------------------------------------------| 
 A|-------------------------------------------------------------| 
 E|-------------------------------------------------------------| 


 e|-------------------------------------------------------------| 
 B|--12-10-12-10-12-------12-10-12-13-12------------------------| 
 G|-----------------12-------------------12---------------------| 
 D|-------------------------------------------------------------| 
 A|-------------------------------------------------------------| 
 E|-------------------------------------------------------------| (4x) 



 Base do Refrão  (guitarra 2) 



 e|-------------------------------------------------------------| 
 B|-------------------------------------------------------------| 
 G|-------------------------------------------------------------| 
 D|--9-9-9-9-9-9----5-5-5-5-5-5-------------------2-2-2-2-2-2---| 
 A|--7-7-7-7-7-7----3-3-3-3-3-3----5-5-5-5-5-5----0-0-0-0-0-0---| 
 E|--------------------------------3-3-3-3-3-3------------------| 


 e|-------------------------------------------------------------| 
 B|-------------------------------------------------------------| 
 G|-------------------------------------------------------------| 
 D|--9-9-9-9-9-9-------------------5-5-5-5-5-5------------2-2---| 
 A|--7-7-7-7-7-7----5-5-5-5-5-5----3-3-3-3-3-3----5-5-5---0-0---| 
 E|-----------------3-3-3-3-3-3-------------------3-3-3---------| (4X) 



 Passagem do Verso 2 para o Pré-refrão 



 e|-------------------------------------------------------------| 
 B|-------------------------------------------------------------| 
 G|-------------------------------------------------------------| 
 D|---12-12--11--9--7-------------------------------------------| 
 A|---10-10--9---7--5-------------------------------------------| 
 E|-------------------------------------------------------------| 



 Pré-solo 


    
 e|-------------------------------------------------------------| 
 B|-------------------------------------------------------------| 
 G|-------------------------------------------------------------| 
 D|--------------7------7------7-9----7-9-10-9p7----------------| 
 A|-7--7-9-10-7----9-10---9-10-----10------------10--7----9-10-7| 
 E|-------------------------------------------------------------| 



 e|-0-12-10---0-0-14-12---0-0-15-14-15-17-15p14-----------------| 
 B|---------------------------------------------17-17-----------| 
 G|-------------------------------------------------------------| 
 D|-------------------------------------------------------------| 
 A|---------------------------------------------------7-9-10-7--| 
 E|-------------------------------------------------------------| 



 e|-------------------------------------------------------------| 
 B|-------------------------------------------------------------| 
 G|-------------------------------------------------------------| 
 D|-----7------7------7-9----7-9-10-9p7-------------------------| 
 A|-------9-10---9-10-----10------------10--7----9-10-7---------| 
 E|-------------------------------------------------------------| 



 e|-0-12-10---0-0-14-12---0-0-15-14-15-17-15p14-----------------| 
 B|---------------------------------------------17-17-----------| 
 G|-------------------------------------------------------------| 
 D|-------------------------------------------------------------| 
 A|-------------------------------------------------------------| 
 E|-------------------------------------------------------------| 



 Base do Pré-solo 


 e|-------------------------------------------------------------| 
 B|-------------------------------------------------------------| 
 G|-------------------------------------------------------------| 
 D|-9-9-----------9-9-----------5-5---------------------7--7----| 
 A|-7-7-----------7-7-----------3-3--------------5-5----5--5----| 
 E|-----0-0-0-0-0-----0-0-0-0-0-----0-0-0-0-0----3-3------------| 



 e|-------------------------------------------------------------| 
 B|-------------------------------------------------------------| 
 G|-------------------------------------------------------------| 
 D|-9-9-----------9-9-----------5-5--------------------7-7--9-9-| 
 A|-7-7-----------7-7-----------3-3--------------5-5---5-5--7-7-| 
 E|-----0-0-0-0-0-----0-0-0-0-0-----0-0-0-0-0----3-3------------| 



 SOLO  



 e|-----------------7-8-10-7----7---7----7---7----7-------------| 
 B|--10b12r10b12-------------10---8---10---8---10-----7---------| 
 G|-------------------------------------------------9---8-------| 
 D|-------------------------------------------------------------| 
 A|-------------------------------------------------------------| 
 E|-------------------------------------------------------------| 



 e|--------7------7---------------------------------------------| 
 B|--10b12---10-7--------7--------------------------------------| 
 G|-----------------9b11---9-9-7---9-7--------------------------| 
 D|------------------------------9---------7--------7-----------| 
 A|------------------------------------9-7---10-9-7---10-9-7----| 
 E|-------------------------------------------------------------| 



 e|--------------------------------------------------------------| 
 B|-----------------------------------7-------------7------------| 
 G|-------------------------------------8---------8---8---------8| 
 D|-----------7-----------7---------------10-7-10-------10-7-10--| 
 A|-6h7-6h7-----9-7-6-7-9---9-7-6-7-9----------------------------| 
 E|---------7----------------------------------------------------| 




 e|-------------------------------------------------------------| 
 B|-------------------------------------------------------------| 
 G|-------------------------12t-h7p0-12t-h7p0-12t-h7p0--12t-h7p0| 
 D|-10-7--------7-10-7------------------------------------------| 
 A|------9----9--------9----------------------------------------| 
 E|--------11------------11-------------------------------------| 



 e|----------17-19-20-19p17----17----------------17-------------| 
 B|-17-19-20----------------20----20-19-17-19-20----20-19-17----| 
 G|-------------------------------------------------------------| 
 D|-------------------------------------------------------------| 
 A|-------------------------------------------------------------| 
 E|-------------------------------------------------------------| 



 e|---------------------17-19-20-19p17----17--------------------| 
 B|-20-19-17---17-19-20----------------20----20-19-17h19p17\13--| 
 G|-------------------------------------------------------------| 
 D|-------------------------------------------------------------| 
 A|-------------------------------------------------------------| 
 E|-------------------------------------------------------------| 



 e|-------------------------------------------------------------| 
 B|---13--12----------------------------------------------------| 
 G|-------------------------------------------------------------| 
 D|-------------------------------------------------------------| 
 A|-------------------------------------------------------------| 
 E|-------------------------------------------------------------| 





 Base do Solo 


 e|-------------------------------------------------------------| 
 B|-------------------------------------------------------------| 
 G|-------------------------------------------------------------| 
 D|-4-4-4-4-4-4----2-2-2-2-2-2-------------------2-2-2-2-2-2----| 
 A|-2-2-2-2-2-2----0-0-0-0-0-0----5-5-5-5-5-5----0-0-0-0-0-0----| 
 E|-------------------------------3-3-3-3-3-3-------------------| 



 e|-------------------------------------------------------------| 
 B|-------------------------------------------------------------| 
 G|-------------------------------------------------------------| 
 D|-4-4-4-4-4-4----2-2-2-2-2-2-------------------5-5-5-5-5-5----| 
 A|-2-2-2-2-2-2----0-0-0-0-0-0----5-5-5-5-5-5----3-3-3-3-3-3----| 
 E|-------------------------------3-3-3-3-3-3-------------------| 


  Base do Final 



 e|-------------------------------------------------------------| 
 B|-------------------------------------------------------------| 
 G|-------------------------------------------------------------| 
 D|-----9-9-9-9-9-9-9-9----------5-5-5-5-5-5-5-5----------------| 
 A|-----7-7-7-7-7-7-7-7----------3-3-3-3-3-3-3-3----------------| 
 E|-------------------------------------------------------------| 



 e|-------------------------------------------------------------| 
 B|-------------------------------------------------------------| 
 G|-------------------------------------------------------------| 
 D|-----------------------------7-7-7-7-7-7-7-7-----------------| 
 A|----5-5-5-5-5-5-5-5----------5-5-5-5-5-5-5-5-----------------| 
 E|----3-3-3-3-3-3-3-3------------------------------------------|   



 e|-------------------------------------------------------------| 
 B|-------------------------------------------------------------| 
 G|-------------------------------------------------------------| 
 D|-----9-9-9-9-9-9-9-9----------5-5-5-5-5-5-5-5----------------| 
 A|-----7-7-7-7-7-7-7-7----------3-3-3-3-3-3-3-3----------------| 
 E|-------------------------------------------------------------| 



 e|-------------------------------------------------------------| 
 B|-------------------------------------------------------------| 
 G|-------------------------------------------------------------| 
 D|-----------------------------7-------------------------------| 
 A|----5-5-5-5-5-5-5-5----------5-------------------------------| 
 E|----3-3-3-3-3-3-3-3------------------------------------------|   
  



 Dueto do final ( Guitarra 2 ) 



 e|-------------------------------------------------------------| 
 B|-------------------------------------------------------------| 
 G|-------------------------------------------------------------| 
 D|-9--7--9--10\---9--7--9--10\--9--7--9--10\----9--7--5--4-----| 
 A|-------------------------------------------------------------| 
 E|-------------------------------------------------------------| 



 e|-------------------------------------------------------------| 
 B|-------------------------------------------------------------| 
 G|-------------------------------------------------------------| 
 D|-9--7--9--10\---9--7--9--10\--9--7--9--10\-----7-------------| 
 A|-----------------------------------------------5-------------| 
 E|-------------------------------------------------------------| 

  

 Dueto do final ( Guitarra 3 ) 



 e|-------------------------------------------------------------| 
 B|-------------------------------------------------------------| 
 G|-------------------------------------------------------------| 
 D|-5--4--5--7\---5--4--5--7\---5--4--5--7\---5--4--2-----------| 
 A|----------------------------------------------------5--------| 
 E|-------------------------------------------------------------| 



 e|-------------------------------------------------------------| 
 B|-------------------------------------------------------------| 
 G|-------------------------------------------------------------| 
 D|-5--4--5--7\---5--4--5--7\---5--4--5--7\---7-----------------| 
 A|-------------------------------------------5-----------------| 
 E|-------------------------------------------------------------| 



	  

Search Paypal
auto scroll beats size up size down change color hide chords drawings
tab show chords e-chords YouTube Clip e-chords hide all tabs e-chords go to top tab