Iron Maiden

home > Iron Maiden

If Eternity Should Fail Tab

Iron Maiden

Difficulty: nolevelnolevel

by andrsouza

tuner correct add songbook print version text version save to e-mail
chordsukulelecavacokeyboardtabbassdrumsharmonicsflute Guitar Pro
chords

If Eternity Should Fail

  		Intro:  
  
(Guitarra 1) 

E|-----------------------------------------| 
B|-----------------------------------------| 
G|-----------------------------------------| 2X 
D|-3---3-2-------3---3-2-------------------| 
A|---5-----5-3-----5-----5-3---------------| 
E|-----------------------------------------| 

(Guitarra 2) 

E|-----------------------------------------| 
B|-/10----10-8--------/10----10-8----------| 
G|-----10------10-9-------10------10-9-----| 
D|-----------------------------------------| 
A|-----------------------------------------| 
E|-----------------------------------------| 

E|-----------------------------------------| 
B|-/10----10-8--------/10----10-8-10-10~---| 
G|-----10------10-9-------10---------------| 
D|-----------------------------------------| 
A|-----------------------------------------| 
E|-----------------------------------------| 

Riff 1: 

(Guitarra 1) 

E|------------------------------ 
B|------------------------------ 
G|-7--X-X-X--X-X-X--X-X--------- 
D|-7--X-X-X--X-X-X--X-X--------- 
A|-5--X-X-X--X-X-X--X-X--------- 
E|------------------------------ 
                                 
E|------------------------------ 
B|------------------------------ 
G|-5--X-X-X--X-X-X--X-X--------- 
D|-5--X-X-X--X-X-X--X-X--------- 
A|-3--X-X-X--X-X-X--X-X--------- 
E|------------------------------ 

E|------------------------------ 
B|------------------------------ 
G|-7--X-X-X--X-X-X--X-X--------- 
D|-7--X-X-X--X-X-X--X-X--------- 
A|-5--X-X-X--X-X-X--X-X--------- 
E|------------------------------ 
                                 
E|------------------------------| 
B|------------------------------| 
G|------------------------------| 
D|-10--9--10--9--7--5--7--------| 6X 
A|-8---7--8---7--5--3--5--------| 
E|------------------------------| 


(Guitarra 2) 

E|------------------------------| 
B|-6---5---6--------------------| 
G|-7---5---7--------------------| 6X 
D|-7---5---7---10-10------------| 
A|-------------8--7-------------| 
E|------------------------------| 


Pré-Refrão: 

(Base Guitarra 1) 

E|-------------------------| 
B|-------------------------| 
G|-7--X-X-X--X-X-X--X-X----| 2X 
D|-7--X-X-X--X-X-X--X-X----|  
A|-5--X-X-X--X-X-X--X-X----| 
E|-------------------------| 

E|-------------------------| 
B|-------------------------| 
G|-5--X-X-X--X-X-X--X-X----| 2X 
D|-5--X-X-X--X-X-X--X-X----|  
A|-3--X-X-X--X-X-X--X-X----| 
E|-------------------------| 

E|-------------------------| 
B|-------------------------| 
G|-7--X-X-X--X-X-X--X-X----| 2X 
D|-7--X-X-X--X-X-X--X-X----|  
A|-5--X-X-X--X-X-X--X-X----| 
E|-------------------------| 

E|-------------------------| 
B|-------------------------| 
G|-5--X-X-X--X-X-X--X-X----| 2X 
D|-5--X-X-X--X-X-X--X-X----|  
A|-3--X-X-X--X-X-X--X-X----| 
E|-------------------------| 

(Base Guitarra 2) 

E|-------------------------| 
B|-6~----------------------| 
G|-7~----------------------| 2X 
D|-7~----------------------|  
A|-------------------------| 
E|-------------------------| 

E|-------------------------| 
B|-5~----------------------| 
G|-5~----------------------| 2X 
D|-5~----------------------|  
A|-------------------------| 
E|-------------------------| 

E|-------------------------| 
B|-6~----------------------| 
G|-7~----------------------| 2X 
D|-7~----------------------|  
A|-------------------------| 
E|-------------------------| 

E|-------------------------| 
B|-5~----------------------| 
G|-5~----------------------| 2X 
D|-5~----------------------|  
A|-------------------------| 
E|-------------------------| 

(Solo Guitarra 1) 

E|------------------------------------------| 
B|------------------------------------------| 
G|-------------------7----------------------| 
D|----7-9-9-9-9-7------9-9-7-9-7-----7----9-| 
A|-10-------------10--------------10---10---| 
E|------------------------------------------| 

E|------------------------------------------| 
B|------------------------------------------| 
G|-------------------7----------------------| 
D|----7-9-9-9-9-7------9-9-7-9-7-----7------| 
A|-10-------------10--------------10---10-9-| 
E|------------------------------------------| 


(Solo Guitarra 2) 

E|--------------------------8------------------------------| 
B|------8-10-10-10-10--8------10-10-8-10-8----8---8----/10-| 
G|-9-10------------------10----------------10--10---10-----| 
D|---------------------------------------------------------| 
A|---------------------------------------------------------| 
E|---------------------------------------------------------| 

E|------------------------8------------------------------| 
B|----8-10-10-10-10--8------10-10-8-10-8----8---8--------| 
G|-10------------------10----------------10--10---10-9~--| 
D|-------------------------------------------------------| 
A|-------------------------------------------------------| 
E|-------------------------------------------------------| 

Refrão: 

E|-----------------------| 
B|-----------------------| 
G|-7--7-5--5-3-------7-7-| 4X 
D|-7--7-5--3-3-3--5--7-7-| 
A|-5--5-3--3-1-3--5--5-5-| 
E|-------------1--3------| 

Riff da Intro: 

(Guitarra 1) 

E|-----------------------------------------| 
B|-----------------------------------------| 
G|-----------------------------------------|  
D|-3---3-2-------3---3-2-------------------| 
A|---5-----5-3-----5-----5-3---------------| 
E|-----------------------------------------| 


(Guitarra 2) 

E|-----------------------------------------| 
B|-/10----10-8--------/10----10-8-10-10~---| 
G|-----10------10-9-------10---------------| 
D|-----------------------------------------| 
A|-----------------------------------------| 
E|-----------------------------------------| 

Riff 1: 

(Guitarra 1) 

E|------------------------------ 
B|------------------------------ 
G|-7--X-X-X--X-X-X--X-X--------- 
D|-7--X-X-X--X-X-X--X-X--------- 
A|-5--X-X-X--X-X-X--X-X--------- 
E|------------------------------ 
                                 
E|------------------------------ 
B|------------------------------ 
G|-5--X-X-X--X-X-X--X-X--------- 
D|-5--X-X-X--X-X-X--X-X--------- 
A|-3--X-X-X--X-X-X--X-X--------- 
E|------------------------------ 

E|------------------------------ 
B|------------------------------ 
G|-7--X-X-X--X-X-X--X-X--------- 
D|-7--X-X-X--X-X-X--X-X--------- 
A|-5--X-X-X--X-X-X--X-X--------- 
E|------------------------------ 
                                 
E|----------------------------| 
B|----------------------------| 
G|----------------------------| 
D|-10--9--10--9--7--5--7------| 2X 
A|-8---7--8---7--5--3--5------| 
E|----------------------------| 

(Guitarra 2) 

E|----------------------------| 
B|-6---5---6----6-1-----------| 
G|-7---5---7----5-0-----------| 2X 
D|-7---5---7----3-2-----------| 
A|----------------3-----------| 
E|----------------------------| 


Riff 2: 

E|------------------------------ 
B|------------------------------ 
G|-7--X-X-X--X-X-X--X-X--------- 
D|-7--X-X-X--X-X-X--X-X--------- 
A|-5--X-X-X--X-X-X--X-X--------- 
E|------------------------------ 
                                 
E|------------------------------| 
B|------------------------------| 
G|-5--X-X-X--X-X-X--X-X---------| 2X 
D|-5--X-X-X--X-X-X--X-X---------| 
A|-5--X-X-X--X-X-X--X-X---------| 
E|------------------------------| 

Riff 1: 

(Guitarra 1) 

E|------------------------------ 
B|------------------------------ 
G|-7--X-X-X--X-X-X--X-X--------- 
D|-7--X-X-X--X-X-X--X-X--------- 
A|-5--X-X-X--X-X-X--X-X--------- 
E|------------------------------ 
                                 
E|------------------------------ 
B|------------------------------ 
G|-5--X-X-X--X-X-X--X-X--------- 
D|-5--X-X-X--X-X-X--X-X--------- 
A|-3--X-X-X--X-X-X--X-X--------- 
E|------------------------------ 

E|------------------------------ 
B|------------------------------ 
G|-7--X-X-X--X-X-X--X-X--------- 
D|-7--X-X-X--X-X-X--X-X--------- 
A|-5--X-X-X--X-X-X--X-X--------- 
E|------------------------------ 
                                 
E|----------------------------| 
B|----------------------------| 
G|----------------------------| 2X 
D|-10--9--10--9--7--5--7------|  
A|-8---7--8---7--5--3--5------| 
E|----------------------------| 

(Guitarra 2) 

E|------------------------------| 
B|-6---5---6--------------------| 
G|-7---5---7--------------------| 2X 
D|-7---5---7---10-10------------| 
A|-------------8--7-------------| 
E|------------------------------| 

Pré-Refrão: 

(Base Guitarra 1) 

E|-------------------------| 
B|-------------------------| 
G|-7--X-X-X--X-X-X--X-X----| 2X 
D|-7--X-X-X--X-X-X--X-X----|  
A|-5--X-X-X--X-X-X--X-X----| 
E|-------------------------| 

E|-------------------------| 
B|-------------------------| 
G|-5--X-X-X--X-X-X--X-X----| 2X 
D|-5--X-X-X--X-X-X--X-X----|  
A|-3--X-X-X--X-X-X--X-X----| 
E|-------------------------| 

E|-------------------------| 
B|-------------------------| 
G|-7--X-X-X--X-X-X--X-X----| 2X 
D|-7--X-X-X--X-X-X--X-X----|  
A|-5--X-X-X--X-X-X--X-X----| 
E|-------------------------| 

E|-------------------------| 
B|-------------------------| 
G|-5--X-X-X--X-X-X--X-X----| 2X 
D|-5--X-X-X--X-X-X--X-X----|  
A|-3--X-X-X--X-X-X--X-X----| 
E|-------------------------| 

(Base Guitarra 2) 

E|-------------------------| 
B|-6~----------------------| 
G|-7~----------------------| 2X 
D|-7~----------------------|  
A|-------------------------| 
E|-------------------------| 

E|-------------------------| 
B|-5~----------------------| 
G|-5~----------------------| 2X 
D|-5~----------------------|  
A|-------------------------| 
E|-------------------------| 

E|-------------------------| 
B|-6~----------------------| 
G|-7~----------------------| 2X 
D|-7~----------------------|  
A|-------------------------| 
E|-------------------------| 

E|-------------------------| 
B|-5~----------------------| 
G|-5~----------------------| 2X 
D|-5~----------------------|  
A|-------------------------| 
E|-------------------------| 

(Solo Guitarra 1) 

E|------------------------------------------| 
B|------------------------------------------| 
G|-------------------7----------------------| 
D|----7-9-9-9-9-7------9-9-7-9-7-----7----9-| 
A|-10-------------10--------------10---10---| 
E|------------------------------------------| 

E|------------------------------------------| 
B|------------------------------------------| 
G|-------------------7----------------------| 
D|----7-9-9-9-9-7------9-9-7-9-7-----7------| 
A|-10-------------10--------------10---10-9-| 
E|------------------------------------------| 


(Solo Guitarra 2) 

E|--------------------------8------------------------------| 
B|------8-10-10-10-10--8------10-10-8-10-8----8---8----/10-| 
G|-9-10------------------10----------------10--10---10-----| 
D|---------------------------------------------------------| 
A|---------------------------------------------------------| 
E|---------------------------------------------------------| 

E|------------------------8------------------------------| 
B|----8-10-10-10-10--8------10-10-8-10-8----8---8--------| 
G|-10------------------10----------------10--10---10-9~--| 
D|-------------------------------------------------------| 
A|-------------------------------------------------------| 
E|-------------------------------------------------------| 


Refrão: 

E|-----------------------| 
B|-----------------------| 
G|-7--7-5--5-3-------7-7-| 5X 
D|-7--7-5--3-3-3--5--7-7-| 
A|-5--5-3--3-1-3--5--5-5-| 
E|-------------1--3------| 
	  

Search Paypal
auto scroll beats size up size down change color hide chords drawings
tab show chords e-chords YouTube Clip e-chords hide all tabs e-chords go to top tab