Iron Maiden

home > Iron Maiden

Iron Maiden Bass Tab

Iron Maiden

Difficulty: EasyEasy

by Timom

tuner correct add songbook print version text version save to e-mail
chordsukulelecavacokeyboardtabbassdrummharmonicsflute Guitar Pro
chords

Iron Maiden

Year: 1980 - Album: Death on the Road

(Steve Harris)

  		Wait for bass and drums to enter. 
||-----------------------------------------------------------7h9-7--- 
||-----------------------------------7-7-7-7-7-7-7-7-7-7-7-7-------9- 
||------------------------------------------------------------------- 
||------------------------------------------------------------------- 
 
 
-------------------------5h7-5---------------------------7h9-7------- 
-5-5-5-5-5-5-5-5-5-5-5-5-------7-7-7-7-7-7-7-7-7-7-7-7-7-------9-5-5- 
--------------------------------------------------------------------- 
--------------------------------------------------------------------- 
				Won't you come into my room    I wan- 
---------------------5h7-5---|--------------------------------------- 
-5-5-5-5-5-5-5-5-5-5-------7-|-7-7-7-7-7-7-7-7-7-7-7-7-7-7-7-7-5-5-5- 
-----------------------------|--------------------------------------- 
-----------------------------|--------------------------------------- 
na show you all my wares... 
--------------------------------------------------------------------- 
-5-5-5-5--5--3------5---3------3-5-7-7-7-7-7-7-7-7-7-7-7-7-7-7-7-7-5- 
----------------5-----------5---------------------------------------- 
--------------------------------------------------------------------- 
					  Oh well, wherever you are 
----------------------------------------|---------------------------- 
-5-5-5-5-5-5--5---3------5---3------3-5-|---------------------------4 
---------------------5----------5-------|-3---3--3-3------------5-5-- 
----------------------------------------|------------3---3--3-3------ 
 Iron maidens gonna get you... 
--------------------------------------------------------------------- 
-5-7---------7-5-------------------------------4-5-7---------7-5----- 
-------4-5-7-----7-5-3---3--3-3------------5-5---------4-5-7-----7-5- 
-----5--------------------------3---3--3-3-----------5--------------- 
 
 
--------------------------------------------------------------------- 
---------------------------4-5-7--7-5-4------------------------------ 
-3---3--3-3------------5-5--------------7-5-4-----3---3--3-3--------- 
------------3---3--3-3------------------------7-5------------3---3--3 
 
 
-------------------------------||-----------------------------------4 
---------4-5-7---------7-5-----||---------------------------5---7---- 
-----5-5---------4-5-7-----7-5-||-----------5---7---8-5-7-8---------- 
-3-3-----------5---------------||-5---7---8-------------------------- 
				     bass & drums 
----------------------------------4-|---9----7----5---5---------9---- 
----------------------------5---7---|-7----7----5---5---------7----7- 
------------5---7---8-5-7-8---------|--------------------5-3--------- 
--5---7---8-------------------------|-------------------------------- 
							    outro 
-7----5---5---------9----7----5---5----------------------||-9----9--- 
----5---5---------7----7----5---5------------------------||-7----7--- 
-------------5-3---------------------5-3--5-5-5-5-5--3---||-0----0--- 
---------------------------------------------------------||---------- 
	    (free time) 
-9----9---------------------------------|| 
-7----7----------------------------7\---|| 
-0----0----------------------------0----|| 
----------------------------------------|| 
	  

Search Paypal
auto scroll beats size up size down change color hide chords drawings
tab show chords e-chords YouTube Clip e-chords hide all tabs e-chords go to top tab