Iron Maiden

home > Iron Maiden

Rainmaker Tab

Iron Maiden

Difficulty: ExpertExpert

tuner correct add songbook print version text version save to e-mail
chordsukulelecavacokeyboardtabbassdrumsharmonicsflute Guitar Pro
chords

Rainmaker

Year: 2003 - Album: Death on the Road

  		 
|Intro 00:00s a 00:12s| 
 
|------------10-------9--------8---------------------| 
|---------10----10-------10----------12--------------| 
|----9-10----------10-------10----11----11-----------| 
|-10-------------------------------------------------| 
|----------------------------------------------------| 
|----------------------------------------------------|3x 
 
|------------10-------------------10-----------------| 
|---------10----10-------------10----10--------------| 
|----9-10----------10-----9-10----------10-----------| 
|-10------------------10-----------------------------| 
|----------------------------------------------------| 
|----------------------------------------------------| 
===================================================== 
|Verso 00:13s a 00:35s| 
 
|----------------------------------------------------| 
|----------------------------------------------------| 
|----------------------------------------------------| 
|-7-----7-7-----7-3-----3-5-----5--------------------| 
|-5-555-5-5-555-5-1-111-1-3-333-3--------------------| 
|----------------------------------------------------|3x 
 
|----------------------------------------------------| 
|----------------------------------------------------| 
|----------------------------------------------------| 
|-3--------5-----------------------------------------| 
|-1--------3-----------------------------------------| 
|----------------------------------------------------| 
===================================================== 
|Pré-chorus 00: 37 a 0:59s| 
 
|----------------------------------------------------| 
|----------------------------------------------------| 
|----------------------------------------------------| 
|-7---3---5---7--------------------------------------| 
|-5---1---3---5--------------------------------------| 
|----------------------------------------------------| 
 
 End 1             End 2   
|-----------------|----------------------------------| 
|-----------------|----------------------------------| 
|-----------------|----------------------------------| 
|-3---5---3---7---|-3---5---7------------------------| 
|-1---3---1---5---|-1---3---5------------------------| 
|-----------------|----------------------------------| 
==================================================== 
|Refrão 1:00m a 1:22s| 
 
|-------------------------------------------------------| 
|-------------------------------------------------------| 
|-------------------------------------------------------| 
|-7-----7-7-----7-3-----3-3-----3-5-----5-5-----5-7--3--| 
|-5-555-5-5-555-5-1-111-1-1-111-1-3-333-3-3-333-3-5--1--| 
|-------------------------------------------------------|2x 
 
====================================================== 
|Pré-chorus 1:24s a 1:44s| 
 
|----------------------------------------------------| 
|----------------------------------------------------| 
|----------------------------------------------------| 
|-7---3---5---7--------------------------------------| 
|-5---1---3---5--------------------------------------| 
|----------------------------------------------------| 
 
 End 1             End 2   
|-----------------|----------------------------------| 
|-----------------|----------------------------------| 
|-----------------|----------------------------------| 
|-3---5---3---7---|-3---5---7------------------------| 
|-1---3---1---5---|-1---3---5------------------------| 
|-----------------|----------------------------------| 
==================================================== 
|Refrão 1:46s a 2:07s| 
 
|-------------------------------------------------------| 
|-------------------------------------------------------| 
|-------------------------------------------------------| 
|-7-----7-7-----7-3-----3-3-----3-5-----5-5-----5-7--3--| 
|-5-555-5-5-555-5-1-111-1-1-111-1-3-333-3-3-333-3-5--1--| 
|-------------------------------------------------------|2x 
==================================================== 
|Base Solo 2:09 a 2:54s 
 
|--------------------------------------------------| 
|--------------------------------------------------| 
|--------------------------------------------------| 
|-7-----7-3-----3-5-----5-3---5--------------------| 
|-5-555-5-1-111-1-3-333-3-1---3--------------------| 
|--------------------------------------------------| 
 
|--------------------------------------------------| 
|--------------------------------------------------| 
|--------------------------------------------------| 
|-7-----7-3-----3-5--------------------------------| 
|-5-555-5-1-111-1-3-33333333-----------------------| 
|--------------------------------------------------|4x 
==================================================== 
|Refrão 2:55s a 3:17s| 
 
|-------------------------------------------------------| 
|-------------------------------------------------------| 
|-------------------------------------------------------| 
|-7-----7-7-----7-3-----3-3-----3-5-----5-5-----5-7--3--| 
|-5-555-5-5-555-5-1-111-1-1-111-1-3-333-3-3-333-3-5--1--| 
|-------------------------------------------------------|2x 
==================================================== 
|Pré-End 3:18s a 3:39s| 
 
|----------------------------------------------------| 
|----------------------------------------------------| 
|----------------------------------------------------| 
|-7---3---5---7--------------------------------------| 
|-5---1---3---5--------------------------------------| 
|----------------------------------------------------| 
 
 End 1             End 2   
|-----------------|----------------------------------| 
|-----------------|----------------------------------| 
|-----------------|----------------------------------| 
|-3---5---3---7---|-3---5---7------------------------| 
|-1---3---1---5---|-1---3---5------------------------| 
|-----------------|----------------------------------| 
==================================================== 
|End 3:41s a 3:55s| 
 
|------------10-------9--------8---------------------| 
|---------10----10-------10----------12--------------| 
|----9-10----------10-------10----11----11-----------| 
|-10-------------------------------------------------| 
|----------------------------------------------------| 
|----------------------------------------------------|3x 
 
|------------10-------------------10-----------------| 
|---------10----10-------------10----10--------------| 
|----9-10----------10-----9-10----------10-----------| 
|-10------------------10---------------------7*------| 
|--------------------------------------------5-------| 
|----------------------------------------------------|2x 
(*Só na última) 
 
Dúvidas? [email protected] 
 
_______________________________________________________ 
Contribuição: Murilo Coan Cruz([email protected]) 

	  

Search Paypal
auto scroll beats size up size down change color hide chords drawings
tab show chords e-chords YouTube Clip e-chords hide all tabs e-chords go to top tab