Iron Maiden

home > Iron Maiden

Noddlin Donkey Blues Tab

Iron Maiden

Difficulty: nolevelnolevel

tuner correct add songbook print version text version save to e-mail
chordsukulelecavacokeyboardtabbassdrumsharmonicsflute Guitar Pro
chords

Noddlin Donkey Blues

  		 
noddlin' donkey blues 
 
 
iron maiden 
 
 
TRANSCRIBED BY RUDY GUZMAN 
 
 
[email protected] 
 
gt1 
e:-------------------------|-------------------------|-------------------------------------| 
B:-------------------------|-------------------------|-------------------------------------| 
G:-------------------------|-2---------------------2-|--4--4-4-4-4-4-4--2-2-2-2-2-2--------| 
D:-2---------------------2-|-2-----4-----5---------2-|--4--4-4-4-4-4-4--2-2-2-2-2-2--2-2-2-| 
A:-2-----4-----5---------2-|-0--0-----0-----0--3b--0-|--2--2-2-2-2-2-2--0-0-0-0-0-0--2-2-2-| 
E:-0--0-----0-----0--3b--0-|-------------------------|-------------------------------0-0-0-| 
 
e:------------------------| 
B:------------------------| 
G:-----------------2---4--| 
D:-2-2-2--2-2-2-2--2---4--| 
A:-2-2-2--2-2-2-2--0---2--| 
E:-0-0-0--0-0-0-0---------| 
 
gt2                          2 times 
e:-----0-----------------|-3b-0---0----------|-3b-0---0-3p0---0--3p0---0-3p0---------------| 
B:---------0-------------|------3------------|------3-------3--------3-------3p0-3p0-------| 
G:-2b----2----0h2p0------|-----------0h2p0---|---------------------------------------0h2p0-| 
D:-------------------2~--|-----------------2-|---------------------------------------------| 
A:-----------------------|-------------------|---------------------------------------------| 
E:-----------------------|-------------------|---------------------------------------------| 
 
e:-----------| 
B:-----------| 
G:0h2p0------| 
D:------2-2--| 
A:-----------| 
E:-----------| 
 
verse 
e:-------------------------|-------------------------|-------------------------------------| 
B:-------------------------|-------------------------|-------------------------------------| 
G:-------------------------|-2---------------------2-|--4--4-4-4-4-4-4--2-2-2-2-2-2--------| 
D:-2---------------------2-|-2-----4-----5---------2-|--4--4-4-4-4-4-4--2-2-2-2-2-2--2-2-2-| 
A:-2-----4-----5---------2-|-0--0-----0-----0--3b--0-|--2--2-2-2-2-2-2--0-0-0-0-0-0--2-2-2-| 
E:-0--0-----0-----0--3b--0-|-------------------------|-------------------------------0-0-0-| 
 
e:------------------------| 
B:------------------------| 
G:-----------------2---4--| 
D:-2-2-2--2-2-2-2--2---4--| 
A:-2-2-2--2-2-2-2--0---2--| 
E:-0-0-0--0-0-0-0---------| 
 
gt2 
:-0-0-0-----------------------------------| 
:--------3-3-3--2-2-2--1-1-1--0-----------| 
:-----------------------------------------| 
:-----------------------------------------| 
:--------------------------------0-1-2----| 
:-----------------------------------------| 
 
verse 
e:-------------------------|-------------------------|-------------------------------------| 
B:-------------------------|-------------------------|-------------------------------------| 
G:-------------------------|-2---------------------2-|--4--4-4-4-4-4-4--2-2-2-2-2-2--------| 
D:-2---------------------2-|-2-----4-----5---------2-|--4--4-4-4-4-4-4--2-2-2-2-2-2--2-2-2-| 
A:-2-----4-----5---------2-|-0--0-----0-----0--3b--0-|--2--2-2-2-2-2-2--0-0-0-0-0-0--2-2-2-| 
E:-0--0-----0-----0--3b--0-|-------------------------|-------------------------------0-0-0-| 
 
e:------------------------| 
B:------------------------| 
G:-----------------2---4--| 
D:-2-2-2--2-2-2-2--2---4--| 
A:-2-2-2--2-2-2-2--0---2--| 
E:-0-0-0--0-0-0-0---------| 
 
*keyboards solo* 
e:-------------------------|-------------------------|-------------------------------------| 
B:-------------------------|-------------------------|-------------------------------------| 
G:-------------------------|-2---------------------2-|--4--4-4-4-4-4-4--2-2-2-2-2-2--------| 
D:-2---------------------2-|-2-----4-----5---------2-|--4--4-4-4-4-4-4--2-2-2-2-2-2--2-2-2-| 
A:-2-----4-----5---------2-|-0--0-----0-----0--3b--0-|--2--2-2-2-2-2-2--0-0-0-0-0-0--2-2-2-| 
E:-0--0-----0-----0--3b--0-|-------------------------|-------------------------------0-0-0-| 
 
e:------------------------| 
B:------------------------| 
G:-----------------2---4--| 
D:-2-2-2--2-2-2-2--2---4--| 
A:-2-2-2--2-2-2-2--0---2--| 
E:-0-0-0--0-0-0-0---------| 
 
gt2 
:-0-0-0-----------------------------------| 
:--------3-3-3--2-2-2--1-1-1--0-----------| 
:-----------------------------------------| 
:-----------------------------------------| 
:--------------------------------0-1-2----| 
:-----------------------------------------| 
 
verse 
e:-------------------------|-------------------------|-------------------------------------| 
B:-------------------------|-------------------------|-------------------------------------| 
G:-------------------------|-2---------------------2-|--4--4-4-4-4-4-4--2-2-2-2-2-2--------| 
D:-2---------------------2-|-2-----4-----5---------2-|--4--4-4-4-4-4-4--2-2-2-2-2-2--2-2-2-| 
A:-2-----4-----5---------2-|-0--0-----0-----0--3b--0-|--2--2-2-2-2-2-2--0-0-0-0-0-0--2-2-2-| 
E:-0--0-----0-----0--3b--0-|-------------------------|-------------------------------0-0-0-| 
 
e:------------------------| 
B:------------------------| 
G:-----------------2---4--| 
D:-2-2-2--2-2-2-2--2---4--| 
A:-2-2-2--2-2-2-2--0---2--| 
E:-0-0-0--0-0-0-0---------| 
 
solo 1 
    2 times 
e:|-3b-0---0----------|-3b-0---0-3p0---0--3p0---0-3p0---------------| 
B:|------3------------|------3-------3--------3-------3p0-3p0-------| 
G:|-----------0h2p0---|---------------------------------------0h2p0-| 
D:|-----------------2-|---------------------------------------------| 
A:|-------------------|---------------------------------------------| 
E:|-------------------|---------------------------------------------| 
 
e:-------------------12----12-15-12----12-14-12----12-15-12----------------------12-15-12-| 
B:----------------12----12----------12----------12----------12-15-12----12-15-12----------| 
G:0h2p0------2/14----------------------------------------------------14-------------------| 
D:------2-2-------------------------------------------------------------------------------| 
A:----------------------------------------------------------------------------------------| 
E:----------------------------------------------------------------------------------------| 
 
:----12-14-12----12-15-12----12-----------------------12h15p12----12----------------------| 
:-12----------12----------12----12-15b-12----12-15-12----------15----15-12h15p12----12----| 
:-----------------------------------------14-------------------------------------15----15-| 
:-----------------------------------------------------------------------------------------| 
:-----------------------------------------------------------------------------------------| 
:-----------------------------------------------------------------------------------------| 
 
:------------------------------------------------------------------------------------------| 
:----------------------------------------------------------------14b-14-12----12-----------| 
:-14-15-14-12----12----------------------------------------------14b-14-12----12-----------| 
:-------------14----14-12-14-12----12--------------------------------------14----14-12---12| 
:-------------------------------14----14-12-14-12----12--------------------------------14--| 
:-------------------------------------------------15----15-14-12---------------------------| 
 
e:-------------------| 
B:-------------------| 
G:-------------------| 
D:-------------------| 
A:-14--12-14---------| 
E:-------------------| 
 
solo 2 
e:--------------------------------------------------------------------------------------| 
B:----14-----12-----10---------------12b-12~~-------------------------------------------| 
G:-14-----12-----10-----12-11--9~~---11b-11~~--14b-12h14p12----12-----------------------| 
D:----------------------------------------------------------14----14-12h14p12----12-----| 
A:----------------------------------------------------------------------------14-----14-| 
E:--------------------------------------------------------------------------------------| 
 
e:----------------------| 
B:----------------------| 
G:----------------------| 
D:----------------------| 
A:-12h14p12----12-------| 
E:----------15----15-12-| 
 
e:----15----14-----12-----10---9----7---------------------------12-12-12------12-----------| 
B:-15----14-----12-----10----9----7----------------------------------------------15~--15-12| 
G:-------------------------------------7b~~~~-4h5p4---------14b-----------14b--------------| 
D:--------------------------------------------------5~~~~----------------------------------| 
A:-----------------------------------------------------------------------------------------| 
E:-----------------------------------------------------------------------------------------| 
     
:-------------------------------------------------------------------| 
:-15b--15-12----12--------------------------------------------------| 
:------------14----14-12----12--------------------------------------| 
:------------------------14----14-12----12--------------------------| 
:------------------------------------14----14-12----12--------------| 
:------------------------------------------------15----15-12-12~----| 
 
 
         ------------------- 
:-------/----------------------------------------------------------------------------------| 
:------/---------------------12h15p12----12------------------------------------------------| 
:-14bf/-14-14-14-14-14-14-14----------15----15-12-14-12----12------------------------------| 
:-------------------------------------------------------14----14-12-14-12----12------------| 
:-------------------------------------------------------------------------14----14-12h14p12| 
:------------------------------------------------------------------------------------------| 
 
e:---------------------------------------------------------| 
B:---------------------------------------------------------| 
G:---------------------------------------------------------| 
D:---------------------------------------------------------| 
A:-14-12-11~~----------------------------------------------| 
E:---------------------------------------------------------| 
 
 
 

	  

Search Paypal
auto scroll beats size up size down change color hide chords drawings
tab show chords e-chords YouTube Clip e-chords hide all tabs e-chords go to top tab