Iron Maiden

home > Iron Maiden

When The Wild Wind Blows Tab

Iron Maiden

Difficulty: BeginnerBeginner

by tarikike

tuner correct add songbook print version text version save to e-mail
chordsukulelecavacokeyboardtabbassdrumsharmonicsflute Guitar Pro
chords

When The Wild Wind Blows

  		(tablatura transcrita por Lucas N. Pavăo) 
|------------------------------------------------------|--------------------------------------------------------------------| 
|----------17--------15-------15--------15-------|------17-------15-----15h17-----------------------------------| 
|----16--------16--------16--------16--------16-|-16------16------16---------------------------------------------| 
|------------------------------------------------------|--------------------------------------------------------------------| 
|------------------------------------------------------|--------------------------------------------------------------------| 
|------------------------------------------------------|--------------------------------------------------------------------| 

|------------------------------------------------------|--------------------------------------------------------------------| 
|----------17--------15-------15--------15-------|------17-------15------------------------------------------------| 
|----16--------16--------16--------16--------16-|-16------16------16—16h17---------------------------------| 
|------------------------------------------------------|--------------------------------------------------------------------| 
|------------------------------------------------------|--------------------------------------------------------------------| 
|------------------------------------------------------|--------------------------------------------------------------------| 

|------------------------------------------------------|--------------------------------------------------------------------| 
|----------17--------15-------15--------15-------|------17-------15-----15h17-----------------------------------| 
|----16--------16--------16--------16--------16-|-16------16------16---------------------------------------------| 
|------------------------------------------------------|--------------------------------------------------------------------| 
|------------------------------------------------------|--------------------------------------------------------------------| 
|------------------------------------------------------|--------------------------------------------------------------------| 

|------------------------------------------------------|--------------------------------------------------------------------| 
|----------17--------15-------15--------15-------|------17----------------------15----------------------------------| 
|----16--------16--------16--------16--------16-|-16------16----17----12----------------------------------------| 
|------------------------------------------------------|--------------------------------------------------------------------| 
|------------------------------------------------------|--------------------------------------------------------------------| 
|------------------------------------------------------|--------------------------------------------------------------------| 

|-------------------------------------------------------------------|-------------------------------------------------------| 
|-------------------------------------------------------------------|-------------------------------------------------------| 
|----9--11--12--11--9--9--7--7--------7---------------------|--9--11--12--11--9--9--7--7---------------------| 
|-----------------------------------------9------9--9--5—7-----|----------------------------------------9---7~------| 
|-------------------------------------------------------------------|-------------------------------------------------------| 
|-------------------------------------------------------------------|-------------------------------------------------------| 

|-------------------------------------------------------------------|------------------------------------------------------| 
|-------------------------------------------------------------------|----------------------------------------16~---------| 
|----9--11--12--11--9--9--7--7--------7---------------------|-12--11--12--------------14--18-----------------| 
|-----------------------------------------9------9--9--5—7-----|-------------------------------------------------------| 
|-------------------------------------------------------------------|-------------------------------------------------------| 
|-------------------------------------------------------------------|-------------------------------------------------------| 

|-------------------------------------------------------------------|-------------------------------------------------------| 
|-------------------------------------------------------------------|-------------------------------------------------------| 
|----9--11--12--11--9--9--7--7--------7---------------------|--9--11--12--11--9--9--7--7---------------------| 
|-----------------------------------------9------9--9--5—7-----|----------------------------------------9---7~------| 
|-------------------------------------------------------------------|-------------------------------------------------------| 
|-------------------------------------------------------------------|-------------------------------------------------------| 
Have you heard what they said on the news today, Have you heard what is coming to us all? 
|-------------------------------------------------------------------|------------------------------------------------------| 
|-------------------------------------------------------------------|----------------------------------------16~---------| 
|----9--11--12--11--9--9--7--7--------7---------------------|-12--11--12--------------14--18-----------------| 
|-----------------------------------------9------9--9--5—7-----|-------------------------------------------------------| 
|-------------------------------------------------------------------|-------------------------------------------------------| 
|-------------------------------------------------------------------|-------------------------------------------------------| 
That the world as we know it will be coming to an end, Have you heard, have you heard? 
|-------------------------------------------------------------------|------------------------------------------------------| 
|-------------------------------------------------------------------|------------------------------------------------------| 
|-----9--11--12--11--9----7--9--9----7--9--9—7----------|---9---11---12---11---9----7---9---9---7---9-| 
|-9--------------------------9-----------9------------------------|-9---------------------------9-----------------------| 
|-------------------------------------------------------------------|-------------------------------------------------------| 
|-------------------------------------------------------------------|-------------------------------------------------------| 
He sees them in the distance when the darkened clouds roll, He could feel tension in the atmosphere 
|-------------------------------------------------------------------|------------------------------------------------------| 
|-------------------------------------------------------------------|------------------------------------------------------| 
|-----9--11--12--11--9----7--9--9----7--9--9—7----------|---9---11---12---11---9----7---9---9---7---9-| 
|-9--------------------------9-----------9------------------------|-9---------------------------9-----------------------| 
|-------------------------------------------------------------------|-------------------------------------------------------| 
|-------------------------------------------------------------------|-------------------------------------------------------| 
He would look in the mirror, see an old man now, Doesn’t matter they survived somehow 
|---------------------------------------------------------------------|-----------------------------------------------------| 
|---------------------------------------------------------------------|-----------------------------------------------------| 
|-16-16-16-16-14-12-11---------------------------------------|----9--11--12--11--9----7--9--9--7--9-------| 
|---------------------------------12-14-14-12-12-14-14-12-|-9--------------------------9------------------------| 
|---------------------------------------------------------------------|-----------------------------------------------------| 
|---------------------------------------------------------------------|-----------------------------------------------------| 
They said there's nothing can be done about the situation, They said there's nothing you can do at all 
|-----------------------------------------------------------------|---------------------------------------------------------| 
|-----------------------------------------------------------------|-------------------------------------------14~---------| 
|-----9--11--12--11--9----7--9--9----7--9--9—7--------|-12---11---12--------------14---16----------------| 
|-9--------------------------9-----------9----------------------|---------------------------------------------------------| 
|-----------------------------------------------------------------|---------------------------------------------------------| 
|-----------------------------------------------------------------|---------------------------------------------------------| 
To sit and wait around for something to occur, Did you know, did you know? 
|-------------------------------------------------------------------|------------------------------------------------------| 
|-------------------------------------------------------------------|------------------------------------------------------| 
|-----9--11--12--11--9----7--9--9----7--9--9—7----------|---9---11---12---11---9----7---9---9---7---9-| 
|-9--------------------------9-----------9------------------------|-9---------------------------9-----------------------| 
|-------------------------------------------------------------------|-------------------------------------------------------| 
|-------------------------------------------------------------------|-------------------------------------------------------| 
As he stares across the garden looking at the meadows, Wonders if they’ll ever grow again 
|-------------------------------------------------------------------|-------------------------------------------------------| 
|-------------------------------------------------------------------|-------------------------------------------------------| 
|-----9--11--12--11--9----7--9--9----7--9--9—7----------|-----9--11--12--11--9--7--7----------------------| 
|-9--------------------------9-----------9------------------------|-9----------------------------------9--9--6--8------| 
|-------------------------------------------------------------------|-------------------------------------------------------| 
|-------------------------------------------------------------------|-------------------------------------------------------| 
The desperation of the situation getting graver, Getting ready when the wild wind blows 
(electric guitar) 
|-------------------------------------------------------------------|-------------------------------------------------------| 
|-------------------------------------------------------------------|-------------------------------------------------------| 
|----9--11--12--11--9--9--7--7--------7---------------------|--9--11--12--11--9--9--7--7---------------------| 
|-----------------------------------------9------9--9--5—7-----|----------------------------------------9---7~------| 
|-------------------------------------------------------------------|-------------------------------------------------------| 
|-------------------------------------------------------------------|-------------------------------------------------------| 
Have you heard what they said on the news today, Have you heard what is coming to us all? 
|-------------------------------------------------------------------|------------------------------------------------------| 
|-------------------------------------------------------------------|----------------------------------------16~---------| 
|----9--11--12--11--9--9--7--7--------7---------------------|-12--11--12--------------14--18-----------------| 
|-----------------------------------------9------9--9--5—7-----|-------------------------------------------------------| 
|-------------------------------------------------------------------|-------------------------------------------------------| 
|-------------------------------------------------------------------|-------------------------------------------------------| 
Do you know what is happening to just every one of us, Have you heard, have you heard? 
|-------------------------------------------------------------------|-------------------------------------------------------| 
|-------------------------------------------------------------------|-------------------------------------------------------| 
|----9--11--12--11--9--9--7--7--------7---------------------|--9--11--12--11--9--9--7--7---------------------| 
|-----------------------------------------9------9--9--5—7-----|----------------------------------------9---7~------| 
|-------------------------------------------------------------------|-------------------------------------------------------| 
|-------------------------------------------------------------------|-------------------------------------------------------| 
There will be a catastrophe the like we’ve never seen, There will be something that will light the sky 
|-------------------------------------------------------------------|------------------------------------------------------| 
|-------------------------------------------------------------------|----------------------------------------16~---------| 
|----9--11--12--11--9--9--7--7--------7---------------------|-12--11--12--------------14--18-----------------| 
|-----------------------------------------9------9--9--5—7-----|-------------------------------------------------------| 
|-------------------------------------------------------------------|-------------------------------------------------------| 
|-------------------------------------------------------------------|-------------------------------------------------------| 
That the world as we know it, it will never be the same, Did you know, did you know? 
|-------------------------------------------------------------------|------------------------------------------------------| 
|-------------------------------------------------------------------|------------------------------------------------------| 
|-----9--11--12--11--9----7--9--9----7--9--9—7----------|---9---11---12---11---9----7---9---9---7---9-| 
|-9--------------------------9-----------9------------------------|-9---------------------------9-----------------------| 
|-------------------------------------------------------------------|-------------------------------------------------------| 
|-------------------------------------------------------------------|-------------------------------------------------------| 
He carries everything into the shelter now, but first, Getting ready when the moments comes 
|-------------------------------------------------------------------|------------------------------------------------------| 
|-------------------------------------------------------------------|------------------------------------------------------| 
|-----9--11--12--11--9----7--9--9----7--9--9—7----------|---9---11---12---11---9----7---9---9---7---9-| 
|-9--------------------------9-----------9------------------------|-9---------------------------9-----------------------| 
|-------------------------------------------------------------------|-------------------------------------------------------| 
|-------------------------------------------------------------------|-------------------------------------------------------| 
He has enough supplies to last them for a year or two, Good to have because you never know 
|---------------------------------------------------------------------|-----------------------------------------------------| 
|---------------------------------------------------------------------|-----------------------------------------------------| 
|-16-16-16-16-14-12-11---------------------------------------|----9--11--12--11--9----7--9--9--7--9-------| 
|---------------------------------12-14-14-12-12-14-14-12-|-9--------------------------9------------------------| 
|---------------------------------------------------------------------|-----------------------------------------------------| 
|---------------------------------------------------------------------|-----------------------------------------------------| 
They tell him nothing that we don’t already know about, They tell us nothing that is real at all 
|-----------------------------------------------------------------|---------------------------------------------------------| 
|-----------------------------------------------------------------|-------------------------------------------14~---------| 
|-----9--11--12--11--9----7--9--9----7--9--9—7--------|-12---11---12--------------14---16----------------| 
|-9--------------------------9-----------9----------------------|---------------------------------------------------------| 
|-----------------------------------------------------------------|---------------------------------------------------------| 
|-----------------------------------------------------------------|---------------------------------------------------------| 
They only fill us with the stuff that they want, Did you know, did you know? 
|-------------------------------------------------------------------|------------------------------------------------------| 
|-------------------------------------------------------------------|------------------------------------------------------| 
|-----9--11--12--11--9----7--9--9----7--9--9—7----------|---9---11---12---11---9----7---9---9---7---9-| 
|-9--------------------------9-----------9------------------------|-9---------------------------9-----------------------| 
|-------------------------------------------------------------------|-------------------------------------------------------| 
|-------------------------------------------------------------------|-------------------------------------------------------| 
He's nearly finished with the preparations for the day, He's getting tired; that'll do for now 
|-------------------------------------------------------------------|-------------------------------------------------------| 
|-------------------------------------------------------------------|-------------------------------------------------------| 
|-----9--11--12--11--9----7--9--9----7--9--9—7----------|-----9--11--12--11--9--7--7----------------------| 
|-9--------------------------9-----------9------------------------|-9----------------------------------9--9--6--8------| 
|-------------------------------------------------------------------|-------------------------------------------------------| 
|-------------------------------------------------------------------|-------------------------------------------------------| 
They are preparing for the very worst to come to them, Getting ready when the wild wind blows… 
	  

Search Paypal
auto scroll beats size up size down change color hide chords drawings
tab show chords e-chords YouTube Clip e-chords hide all tabs e-chords go to top tab