Iron Maiden

home > Iron Maiden

22 Acacia Avenue (solo) Tab

Iron Maiden

Difficulty: ExpertExpert

by eduardo%5Flyvio

tuner correct add songbook print version text version save to e-mail
chordsukulelecavacokeyboardtabbassdrumsharmonicsflute Guitar Pro
chords

22 Acacia Avenue (solo)

  		|--------------------------------------------------------10b12-10---7--10b12-| 
|------10b12--8h10p8----------------------8----10b12--8----------------------| 
|--------------------9-------------7---9-------------------------------------| 
|----------------------7/9/7------7------------------------------------------| 
|-----------------------------10---------------------------------------------| 
|----------------------------------------------------------------------------| 
 
|--10p8---7------------------------------------------------------------------| 
|---------------10h12p10/8h10p8/7h8p7/5h7p5/3--3--3h5p3-3-----7b9--7p5-------| 
|----------------------------------------------------------------------------| 
|----------------------------------------------------------------------------| 
|----------------------------------------------------------------------------| 
|----------------------------------------------------------------------------| 
 
|-------------------------------------------------10/12------15b17-----12----| 
|----------------------------------7/8----10/12------------------------------| 
|---7b9---5h7p5h7p5/4--------7/9---------------------------------------------| 
|----------------------------------------------------------------------------| 
|----------------------------------------------------------------------------| 
|----------------------------------------------------------------------------| 
 
|------------12---15--14--12-----------12------------------------------------| 
|---15b17----------------------15b17-------15--------------------------------| 
|------------------------------------------------14b16p14--14----12----------| 
|-----------------------------------------------------------------------14---| 
|----------------------------------------------------------------------------| 
|----------------------------------------------------------------------------| 
 
|----------------------------------------------------------------------------| 
|----13b15-----12-------------------------------------------------------12---| 
|------------------------------11---------------11--12--14-----12--14--------| 
|--------------------12---14----------12---14--------------------------------| 
|----------------------------------------------------------------------------| 
|----------------------------------------------------------------------------| 
 
|-------------------------------12--------12---14--15--14--15-----17b19------| 
|---------12--13--12--13---15--------15--------------------------------------| 
|----14----------------------------------------------------------------------| 
|----------------------------------------------------------------------------| 
|----------------------------------------------------------------------------| 
|----------------------------------------------------------------------------| 
 
|----15----17------14b16----12h14-------------------------------14b----------| 
|-----------------------------------13-----15b17----13--12-------------------| 
|----------------------------------------------------------------------------| 
|----------------------------------------------------------------------------| 
|----------------------------------------------------------------------------| 
|----------------------------------------------------------------------------| 
 
 

	  

Search Paypal
auto scroll beats size up size down change color hide chords drawings
tab show chords e-chords YouTube Clip e-chords hide all tabs e-chords go to top tab