Iron Maiden

home > Iron Maiden

Dance Of Death Tab

Iron Maiden

Difficulty: ExpertExpert

by diewithme

tuner correct add songbook print version text version save to e-mail
chordsukulelecavacokeyboardtabbassdrumsharmonicsflute Guitar Pro
chords

Dance Of Death

Year: 2003 - Album: Death on the Road

  		album: Dance of Death


1ºGuitarra-0:01-1:43

e-----------------------------------------------------------
b-----------------------------------------------------------
g-----------------------------------------------------------
D--9-9-----12--12-----7-7----5-5----5-5----7-7----9-9----9-9
A-7-7-7--10--10--10--5-5-5--3-3-3--3-3-3--5-5-5--7-7-7--7-7-7
E------------------------------------------------------------

2ºGuitarra-0:10-0:28

e----------------------------------------------------------------------
b--------10-----12-12-----------12-12-15-12-------------12-12----------
g-9-11-12--12-9------14-12-11-9------------14-12-14-12-9-----14-12-11-9
D----------------------------------------------------------------------
A----------------------------------------------------------------------
E---------------------------------------------------------------------

3ºGuitarra-1:17-1:18

Faz isso 4x quando a guitarra 2 estiver fazendo ......E-E

e----------------
b----------------
g----------------
D-12-10-9--9-10-9
A--------12------
E----------------

1ºGuitarra

1:45-2:55

E-F#-D-E-F#-D (1:45-1:50)

E-G-D-C-C-D-E-E
E-F#-D


2º e 3º Guitarra

2:59-3:30/4:01-4:31/6:56-7:42

e-----------------------------------------------------------------------
b-----------------------------------------------------------------------
g-9-11-12-11-9--9--9-11-12-11-9--9--9-11-12-11-9--9--9-11-11-11-11-11-11
D-------------12---------------12---------------12----------------------
A-----------------------------------------------------------------------
E-----------------------------------------------------------------------

e------------------------------------------------------
b------------------------------------------------------
g-9-11-12-11-9--9--9-11-12-11-9--9--9-11-11-11-11-11-11
D-------------12---------------12----------------------
A------------------------------------------------------
E------------------------------------------------------

1ºGuitarra-3:30-4:00
E-(F#)-G-(A)-D-E

Solo-4:32-6:13
E-(F#)-G-D-(A)-D-E
F-D-E-F
E-G-D-F

1ºGuitarra-6:14-6:56
E-(F#)-G-D-(A)-D-E

3ºGuitarra-6:29-6:55

e-------------------------------------------------------------------
b-------------------------------------------------------------------
g-------------------------------------------------------------------
D-9-12-10-9--9-10-9--------------9--9-12-10-9--9-10-9---------------
A----------12------12-10-12-10-12------------12------12-10-12-10-9-7       
E-------------------------------------------------------------------

G-E-G-E-D-E

1ºGuitarra-7:46-8:24
e------------------------------------------------------------
b------------------------------------------------------------
g------------------------------------------------------------
D--9-9-----12--12-----7-7----5-5----5-5----7-7----9-9----9-9-
A-7-7-7--10--10--10--5-5-5--3-3-3--3-3-3--5-5-5--7-7-7--7-7-7
E------------------------------------------------------------

3ºGuitarra-7:46-8:04

e----------------------------------------------------------------------
b--------10-----12-12-----------12-12-15-12-------------12-12----------
g-9-11-12--12-9------14-12-11-9------------14-12-14-12-9-----14-12-11-9
D-------------------------------------------------------------------
A-------------------------------------------------------------------
E-------------------------------------------------------------------
	  

Full key step upFull key step up
Half key step upHalf key step up
Half key step downHalf key step down
Full key step downFull key step down
Search Paypal
auto scroll beats size up size down change color hide chords drawings
tab show chords e-chords YouTube Clip e-chords hide all tabs e-chords go to top tab