Iron Maiden

home > Iron Maiden

The wicker man (rock in rio) Tab

Iron Maiden

Difficulty: IntermediateIntermediate

by victor%2Eh

tuner correct add songbook print version text version save to e-mail
chordsukulelecavacokeyboardtabbassdrumsharmonicsflute Guitar Pro
chords

The wicker man (rock in rio)

  		-------------------------------------------------- 
-------------------------------------------------- 
-------------------------------------------------- 
---------------------------7----7-9--7-9-10-9-7--- 
-7~-----9-10-7~------7-9-10-9-10---10----------10- 
-------------------------------------------------- 
 
---------------------0-0-12-10-0-0-14-12-0-0-15-14-0-0-17-15- 
------------------------------------------------------------- 
------------------------------------------------------------- 
------------------------------------------------------------- 
-7~-----9-10-7~---------------------------------------------- 
------------------------------------------------------------- 
 
SOlo principal: (main solo) 
 
-------------------10--7-7--7-7--7-7--7-7-------------- 
-10b------10~--------10-8-10-8-10-8-10-8-10------------ 
-------------------------------------------9-8~-------- 
------------------------------------------------------- 
------------------------------------------------------- 
------------------------------------------------------- 
 
---------------------------------------------------- 
-10b----10~---8-10-8-------------------------------- 
--------------------9-8-9-8---7-5-4-5-4------------- 
-----------------------------------7---7-5-4-------- 
--------------------------------------------7~------ 
---------------------------------------------------- 
 
-------2-----2-----2-3-----3-----3-5-----5-----5-7-----7-----7-- 
--------4-4-4-4-4-4-4-5-5-5-5-5-5-5-7-7-7-7-7-7-7-8-8-8-8-8-8-8- 
---------------------------------------------------------------- 
-4s------------------------------------------------------------- 
---------------------------------------------------------------- 
---------------------------------------------------------------- 
 
----------17-19-20-19-17---17------------17--------- 
-17-19-20----------------20---19-17-19-20--20-19-17- 
---------------------------------------------------- 
---------------------------------------------------- 
---------------------------------------------------- 
---------------------------------------------------- 
 
----------------17-19-20-19-17--17--------------------- 
-19-17-16--19-20--------------20--19-17-16-16---------- 
---------------------------------------------16-16~---- 
------------------------------------------------------- 
------------------------------------------------------- 
------------------------------------------------------- 
 
 
 
 
 
 
 

	  

Search Paypal
auto scroll beats size up size down change color hide chords drawings
tab show chords e-chords YouTube Clip e-chords hide all tabs e-chords go to top tab