Iron Maiden

home > Iron Maiden

Shadows Of The Valley Tab

Iron Maiden

Difficulty: nolevelnolevel

by sabrjoao

tuner correct add songbook print version text version save to e-mail
chordsukulelecavacokeyboardtabbassdrumsharmonicsflute Guitar Pro
chords

Shadows Of The Valley

  		Intro: 

e|-12-0-0-7-0-0-8-0-0-10-0-0-7-0-8-0-12-0-0-7-0-0-8-0-0-10-0-0-3-0-5-0-------| 
B|---------------------------------------------------------------------------| (Repeat a few 
G|---------------------------------------------------------------------------| times until 00:50) 
D|---------------------------------------------------------------------------|    
A|---------------------------------------------------------------------------| 
E|---------------------------------------------------------------------------| 

Verse: 
       . . .       . . .       . . .        .  .  . 
e|---------------------------------------------------------------------------| 
B|---------------------------------------------------------------------------| 
G|---------------------------------------------------------------------------| 
D|-9-9-------12-12-----------------------------------------------------------| 
A|-7-7-------10-10-------10-10--------12-12----------------------------------| 
E|-----0-0-0-------0-0-0-8--8--8-8-8--10-10-10-10-10-------------------------| 
        
       . . .       . . .       . . .     . . .  
e|---------------------------------------------------------------------------| 
B|---------------------------------------------------------------------------| 
G|---------------------------------------------------------------------------| 
D|-9-9-------12-12-----------------------------------------------------------| 
A|-7-7-------10-10-------10-10-------7-7-------------------------------------| 
E|-----0-0-0-------0-0-0-8--8--8-8-8-5-5-5-5-5-------------------------------| 
         
       . . .       . . .       . . .        .  .  . 
e|---------------------------------------------------------------------------| 
B|---------------------------------------------------------------------------| 
G|---------------------------------------------------------------------------| 
D|-9-9-------12-12-----------------------------------------------------------| 
A|-7-7-------10-10-------10-10--------12-12----------------------------------| 
E|-----0-0-0-------0-0-0-8--8--8-8-8--10-10-10-10-10-------------------------| 
        
       . . .     . . .       . . .       .  .  .  
e|---------------------------------------------------------------------------| 
B|---------------------------------------------------------------------------| 
G|---------------------------------------------------------------------------| 
D|---------------------------------------------------------------------------| 
A|-9-9-------9-9-------10-10-------12-12-------------------------------------| 
E|-7-7-7-7-7-7-7-7-7-7-8--8--8-8-8-10-10-10-10-10----------------------------| 


       . . .       . . .       . . .        .  .  . 
e|---------------------------------------------------------------------------| 
B|---------------------------------------------------------------------------| 
G|---------------------------------------------------------------------------| 
D|-9-9-------12-12-----------------------------------------------------------| ______ 
A|-7-7-------10-10-------10-10--------12-12----------------------------------|       | 
E|-----0-0-0-------0-0-0-8--8--8-8-8--10-10-10-10-10-------------------------|       | 
                                                                                     | (2x) 
       . . .       . . .       . . .     . . .                                       | 
e|---------------------------------------------------------------------------|       | 
B|---------------------------------------------------------------------------| ______| 
G|---------------------------------------------------------------------------| 
D|-9-9-------12-12-----------------------------------------------------------| 
A|-7-7-------10-10-------10-10-------7-7-------------------------------------| 
E|-----0-0-0-------0-0-0-8--8--8-8-8-5-5-5-5-5-------------------------------| 


Pre-Chorus 
       . . .     . . .       . . .   
e|---------------------------------------------------------------------------| 
B|---------------------------------------------------------------------------| 
G|---------------------------------------------------------------------------|  (3x) 
D|---------------------------------------------------------------------------|   
A|-9-9-------9-9-------10-10-------10-12--10---------------------------------| 
E|-7-7-7-7-7-7-7-7-7-7-8--8--8-8-8-8--10--8----------------------------------| 

       . . .     . . .       . . .       .  .  .  
e|---------------------------------------------------------------------------| 
B|---------------------------------------------------------------------------| 
G|---------------------------------------------------------------------------| 
D|---------------------------------------------------------------------------| 
A|-9-9-------9-9-------10-10-------12-12-------------------------------------| 
E|-7-7-7-7-7-7-7-7-7-7-8--8--8-8-8-10-10-10-10-10----------------------------| 

Chorus: 


e|------------0----------------0---------------0--------0--------------------| 
B|--------------0----------------0---------------0--------0------------------| 
G|-9--12---5------0--9--12--5------0--9--12--5-----0--4-----0--5--7----------| (2x) 
D|-9--12---5---------9--12--5---------9--12--5--------4--------5--7----------| 
A|-7--10---3---------7--10--3---------7--10--3--------2--------3--5----------| 
E|---------------------------------------------------------------------------| 

e|---------------------------------------------------------------------------| 
B|---------------------------------------------------------------------------| 
G|---------------------------------------------------------------------------| (4x) 
D|-9h10p9\7-9p7-----------------------9h10p9\7-9p7---------------------------|  
A|---------------10-7-10-7-10-7---------------------10-7-10-7-10-------------| 
E|---------------------------------------------------------------------------| 


Verse 
Pre-Chorus 
Chorus 

Interlude: 

e|---------------------------------------------------------------------------| 
B|---------------------------------------------------------------------------| 
G|---------------------------------------------------------------------------| (2x) 
D|--9-10-12-10-9-----9-10-9----9-10-12-10-9---------9------------------------| 
A|---------------12--------------------------10-12------10-9-----------------| 
E|-----------------------------------------------------------12--12----------| 

e|---------------------------------------------------------------------------| 
B|---------------------------------------------------------------------------| 
G|------11--12--11-------/14--12--11-------9-9p11-9--------------------------| 
D|--14---------------14---------------12-------------------------------------| 
A|---------------------------------------------------------------------------| 
E|---------------------------------------------------------------------------| 

e|---------------------------------------------------------------------------| 
B|---------------------------------------------------------------------------| 
G|-----11-12-11------------------------------------------------------/14b16\~| <--- Use whammy bar 
D|--14----------14-14-12-----------------------------12-12-------------------| 
A|-----------------------14-14--12-------12-14-14-15--------15-14-12---------| 
E|---------------------------------15-15-------------------------------------| 

Pre-Chorus 
Chorus 

Solo 1: 

e|-------------------------------------------------12-14-15-17-15-17b19--r17-| 
B|-----------------------------------15b17---15b17---------------------------| 
G|--14b16~~/~~\~~/~~\--r14h12----12------------------------------------------| 
D|----------------------------14---------------------------------------------| 
A|---------------------------------------------------------------------------| 
E|---------------------------------------------------------------------------| 

e|-15-14---------------------------------------------------------------------| 
B|-----------------------------------------------15~~----15b17r15--13-12-13--| 
G|--------14b16r14-12-11-12--11h12p11\9--11-12-------------------------------| 
D|---------------------------------------------------------------------------| 
A|---------------------------------------------------------------------------| 
E|---------------------------------------------------------------------------| 

e|---------------------------------------------------------------------------| 
B|-12----12-13-12~~----------------------------------------------------------| 
G|----14--------------14b16r14-12-11-12--11h12p11\9--11--9------9~~----------| 
D|-----------------------------------------------------------12--------------| 
A|---------------------------------------------------------------------------| 
E|---------------------------------------------------------------------------| 

e|---------------------------------------------15b17r15-14-12-14-15-17-15-17-| 
B|-15b17r15--13-12-13--12h13p12----12-13-15~~--------------------------------| 
G|------------------------------14-------------------------------------------| 
D|---------------------------------------------------------------------------| 
A|---------------------------------------------------------------------------| 
E|---------------------------------------------------------------------------| 

e|-17b19~~------14-15-17-15-17-17/19-17-19-20b22-----------------------------| 
B|-----------17--------------------------------------------------------------| 
G|---------------------------------------------------------------------------| 
D|---------------------------------------------------------------------------| 
A|---------------------------------------------------------------------------| 
E|---------------------------------------------------------------------------| 

Rhythm for Solo 2: 

e|---------------------------7-----------------------------------------------| 
B|--------7-8-7-10-8-7---7-8---10-8-7--8-7-8-7-------------------------------| 
G|-9-7-9---------------9------------------------9--7-------------------------| (Repeat a few times 
D|---------------------------------------------------------------------------|   through "Solo 2") 
A|---------------------------------------------------------------------------|        
E|---------------------------------------------------------------------------| 

Solo 2: 

e|--15~~~~----14-12----------------------------------------------------------| 
B|------------------15-12-----------------------------------12---12h15p12----| 
G|------------------------14-12--12b14r12-------------12h14---14-------------| 
D|----------------------------------------14----12h14------------------------| 
A|---------------------------------------------------------------------------| 
E|---------------------------------------------------------------------------| 

e|---------------------------------------------------------------------------| 
B|-------------------------------------------------12~~---15p12--------------| 
G|-b16r14-----------------------12----14~~---12-14---------------14----------| 
D|-----------12~~~~-------12-14----14------------------------------14--------| 
A|--------14-----------14--------------------------------------------14----12| 
E|----------------------------------------------------------------------15---| 

e|----------------------------------------------17p12-15p12----12------------| 
B|---------------------------------------12-15--------------15----15p12-15~~-| 
G|------------------------------------14-------------------------------------| 
D|---------------------------------------------------------------------------| 
A|-12-(12)h14p12\10h12/14p12~~-----------------------------------------------| 
E|---------------------------------------------------------------------------| 


e|----------12---------------------------------------------------------------| 
B|----12-15----15p12----12---------------------------------------------------| 
G|-14----------------14----14p12----14~~--12p9-----12p9---/14-12~~-----------| 
D|-------------------------------14------------12------12--------------------| 
A|---------------------------------------------------------------------------| 
E|---------------------------------------------------------------------------| 


e|-12------------------------------------------------------------------------| 
B|----15p12----12------------------------------------~-----------------------| 
G|----------14----14p12----14-----------14~~-12--14~~~~---11b12~~~~----------| 
D|----------------------14-----12-14-12--------------------------------------| 
A|---------------------------------------------------------------------------| 
E|---------------------------------------------------------------------------| 

Outro ("Into the valley of death fear no evil...") 

e|---------------------------------------------------------------------------| 
B|-------------------------------------------------------------/12-10-\8-8p10| 
G|--/12-11--9-9-\7-------------------------/12-11--9-9-11-12-----------------| (4x) 
D|-----------------9-9-\7--/12--9--7~----------------------------------------| 
A|---------------------------------------------------------------------------| 
E|---------------------------------------------------------------------------| 

Solo 3 (Couldn't figure it out yet) 
Rhythm for "Solo 3" = "Pre-Chorus" 
Chorus 




************************************ 

| /   slide up 
| \   slide down 
| h   hammer-on 
| p   pull-off 
| ~   vibrato 
| +   harmonic 
| x   Mute note 
| b   Bend 
| r   Bend release 


************************************ 
	  

Search Paypal
auto scroll beats size up size down change color hide chords drawings
tab show chords e-chords YouTube Clip e-chords hide all tabs e-chords go to top tab