Iron Maiden

home > Iron Maiden

Hallow Be Thy Name Tab

Iron Maiden

Difficulty: nolevelnolevel

by XxMozxX

tuner correct add songbook print version text version save to e-mail
chordsukulelecavacokeyboardtabbassdrumsharmonicsflute Guitar Pro
chords

Hallow Be Thy Name

  		Standard Tuning 


|-------------------------------------------------| 
|-------------------------------------------------| 
|-------------4---4----------4-----------4------| 
|---------4-5--------5-4---4-5---5-4---4-5---5-4--| 
|--7---7---------------7-----------7------------| 
|-------------------------------------------------| 

    
|-------------------------------------------------| 
|-------------------------------------------------| 
|-------------4---4----------4-----------4------| 
|---------4-5--------5-4---4-5---5-4---4-5---5-4--| 
|--3---3---------------3-----------3------------| 
|-------------------------------------------------| 

|------------------------------------------------| 
|------------------------------------------------| 
|-----------7---------------7-------------7------| 
|--5----7-9------9-7-5--7-9----9-7-5--7-9---9-7--| 
|------------------------------------------------| 
|------------------------------------------------| 


|-----------------------------------------------| 
|-----------------------------------------------| 
|-----------7-9------------7-------------7------| 
|--5----7-9-----9-7-5--7-9----9-7-5--7-9---9-7--| 
|-----------------------------------------------| 
|-----------------------------------------------| 

BASSLINE: 
|-----------------|------------------|----| 
|-----------------|------------------|----| 
|--7----------7-5-|-3------------3-5-|-7--| 
|-----------------|------------------|----| 
	  

Search Paypal
auto scroll beats size up size down change color hide chords drawings
tab show chords e-chords YouTube Clip e-chords hide all tabs e-chords go to top tab