Iron Maiden

home > Iron Maiden

Number Of The Beast (ver. 2) Tab

Iron Maiden

Difficulty: nolevelnolevel

tuner correct add songbook print version text version save to e-mail
chordsukulelecavacokeyboardtabbassdrumsharmonicsflute Guitar Pro
chords

Number Of The Beast (ver. 2)

  		 
Here we go: 
 
Intro 
 
 
--------------------------------------------------- 
--------------------------------------------------- 
--------------------------------------------------- 
-------4---5----7----7----7----7----7--------------   times 3 
--555----5---5----55---55---55---55---------------- 
--------------------------------------------------- 
 ***     *    *   **   **   **   ** 
 
then 
 
--------------------------------------------------- 
--------------------------------------------------- 
---------------------------------------------------  times 1 
------2---3----5----5----5----5----5--------------- 
--333---3---3----33---33---33---33----------------- 
--------------------------------------------------- 
 ***    *   *    **   **   **   **  
--------------------------------------------------- 
--------------------------------------------------- 
---------------------------------------------------   go back to start and work out how many times to play this section 
------2---3---7----7----7----7----7---------------- 
--333---3---3---55---55---55---55------------------- 
--------------------------------------------------- 
  ***   *   *   **   **   **   ** 
 
finaly 
---------------------------------------------------------------------- 
---------------------------------------------------------------------- 
------------7-7-7-------7-----777----7----------7-7-7----7----   Difficult timing 
--7------7--7-7-7-------7-----777----7----------7-7-7----7---- 
5----55-----5-5-5-------5-----555----5----------5-5-5----5---- 
---------------------------------------------------------------------- 
*    ** 
 
 
Then onto: 
Verse 
 
----------------------------------------------------------------------- 
----------------------------------------------------------------------- 
---7-7-7-7------7-7-7-7------7-7-7----7-7-7-7----7-7-7-7------7-7-7---- 
---7-7-7-7------7-7-7-7------7-7-7----7-7-7-7----7-7-7-7------7-7-7---- 
------------55----------55---------5----------5-----------5---------- 
----------------------------------------------------------------------- 
            **          **          *         *           *   
            
--------------------------------------------------- 
--------------------------------------------------- 
-------7-7-7-7-----7-7-7-7------77---7-\----------- 
-------7-7-7-7-----7-7-7-7------77---7-\----------- 
---55-----------55-----------5-------5-\----------- 
--------------------------------------------------- 
  **            **            * 
 
 
----------------------------|------------------------------------------------------ 
----------------------------|------------------------------------------------------ 
-------------------77777----|------7-7-7-7------------------------7--7-7-7-7-7-7---   
---------------7-7-77777----|---77-7-7-7-7--5------5--------5-----7--7-7-7-7-7-7---5 
33332--^-----5-5-5-55555----|-5-55-5-5-5-5--3--333-2--------3-----5--5-5-5-5-5-7---3 
-------3--------------------|------------------------------------------------------- 
 
       Bend slightly 1/4 bend     
 
-------------------------------------------------------------------- 
-------------------------------------------------------------------- 
----------5-----------5--------7-7-7-7-------7777-------7-7-7------- 
-----333--2-----------3--------7-7-7-7-------7777-------7-7-7------- 
----------------------------------------55----------55----------5--- 
-------------------------------------------------------------------- 
                                        **         **           * 
This whole section needs to be well timed: 
 
Interlude before solo: 
 
--------------------------------------------------- 
--------------------------------------------------- 
-2-2-2-4--2--4-4-4-5--4---5-5-5--7--5--7-7-77-7-7-7-7- 
-0-0-0-0--0--0-0-0-0--0---0-0-0--0--0--0-0-00-0-0-0-0- 
--------------------------------------------------- 
--------------------------------------------------- 
 
Solo coming soon//// 
 

	  

Search Paypal
auto scroll beats size up size down change color hide chords drawings
tab show chords e-chords YouTube Clip e-chords hide all tabs e-chords go to top tab