Iron Maiden

home > Iron Maiden

The Alchemist Tab

Iron Maiden

Difficulty: nolevelnolevel

by tarikike

tuner correct add songbook print version text version save to e-mail
chordsukulelecavacokeyboardtabbassdrumsharmonicsflute Guitar Pro
chords

The Alchemist

  		Adrian Smith 
 
E|---------------------------------------------------| 
B|---------------------------------------------------| 
G|-----9-7-10-----9-7-------9-7-10---12-10h12p10-9---| 
D|--10---------10-----9--10------------------------12| 
A|---------------------------------------------------| 
E|---------------------------------------------------| 


Janick Gers 
 
E|---------------------------------------------------| 
B|---------------------------------------------------| 
G|---5-4-7---5-4------5-4-7--9-7h9p7-5-4-------------| 
D|-7-------7-----5--7--------------------------------| 
A|---------------------------------------------------| 
E|---------------------------------------------------| 


Dave Murray 
 
E|-------------------------------------------------------| 
B|---13-12-15----13-12-------13-12-15-17-15h17p15-13-12--| 
G|14----------14-------12--14----------------------------| 
D|-------------------------------------------------------| 
A|-------------------------------------------------------| 
E|-------------------------------------------------------| 


Verso: 
 
E|---------------------------------------------------| 
B|---------------------------------------------------| 
G|---------------------------------------------------| 
D|-------------------4-5-7-5-4-----------------------| 
A|-5-5-5-5-5-5-5-5---5-5-5-5-5-----------------------| 
E|---------------------------------------------------| 


 
E|---------------------------------------------------| 
B|---------------------------------------------------| 
G|---------------------------------------------------| 
D|-------------------2-3-5-3-2-----------------------| 
A|-3-3-3-3-3-3-3-3---3-3-3-3-3-----------------------| 
E|---------------------------------------------------| 


 
E|---------------------------------------------------| 
B|---------------------------------------------------| 
G|--------------3--5--3------------------------------| 
D|--------------3--5--3------------------------------| 
A|--------------1--3--1--3---------------------------| 
E|-3-3-3-3-3-3-----------1---------------------------| 


 
E|---------------------------------------------------| 
B|---------------------------------------------------| 
G|--------------5--7--5------------------------------| 
D|--------------5--7--5------------------------------| 
A|--------------3--5--3---5--------------------------| 
E|-5-5-5-5-5-5------------3--------------------------| 


 
E|---------------------------------------------------| 
B|---------------------------------------------------| 
G|-7---3----5--------3---5---7-----------------------| 
D|-7---3----5----5---3---5---7-----------------------| 
A|-5---1----3----5---1---3---5-----------------------| 
E|---------------3-----------------------------------| 


 
E|--------------------------2-------------------------| 
B|--------------------------3-------------------------| 
G|-7---3---5--------3-------2-------------------------| 
D|-7---3---5----5---3---3---0-------------------------| 
A|-5---1---3----5---1---3-----------------------------| 
E|--------------3-------1-----------------------------| 


Interludio: 
 
E|---------------------------------------------------| 
B|---------------------------------------------------| 
G|------------------------------------7--------------| 
D|-7----9-9-9-9---9----12-12-12-12----7--5-5-2-------| 
A|-5-/--7-7-7-7---7-/--10-10-10-10----5--3-2-0-------| 
E|------0-0-0-0--------------------------------------| 


 
E|---------------------------------------------------| 
B|---------------------------------------------------| 
G|------------------------------------7--------------| 
D|-7----9-9-9-9---9----12-12-12-12----7--------------| 
A|-5-/--7-7-7-7---7-/--10-10-10-10----5--------------| 
E|------0-0-0-0--------------------------------------| 


Refrão: 

(Adrian Smith) 
 
E|---------7-5-7-------------------------------------| 
B|-5--8-7----------5---8-7---------------------------| 
G|---------------------------------------------------| 
D|---------------------------------------------------| 
A|---------------------------------------------------| 
E|---------------------------------------------------| 


(Janick Gers / Dave Murray) 
 
E|---------------------------------------------------| 
B|---------8-7-8-------------------------------------| 
G|----9-7-------------9-7----------------------------| 
D|-10--------------10--------------------------------| 
A|---------------------------------------------------| 
E|---------------------------------------------------| 


Solo: 
 
E|---------------------------------------------------| 
B|---------------------------------------------------| 
G|---------------------------------------------------| 
D|--2--5--5--7--5--4---2-----------------------------| 
A|--0--3--5--5--3--2---0-----------------------------| 
E|--------3------------------------------------------| 


 
E|---------------------------------------------------| 
B|---------------------------------------------------| 
G|---------------------------------------------------| 
D|--2--5--5------------------------------------------| 
A|--0--3--5------------------------------------------| 
E|--------3------------------------------------------| 


 
E|---------------------------------------------------| 
B|---------------------------------------------------| 
G|-----5---5---7--5--4-------------------------------| 
D|-7---3---5---5--3--2-------------------------------| 
A|-5-------3-----------------------------------------| 
E|---------------------------------------------------| 


 
E|---------------------------------------------------| 
B|---------------------------------------------------| 
G|-----5---5-----------------------------------------| 
D|-7---3---5-----------------------------------------| 
A|-5-------3-----------------------------------------| 
E|---------------------------------------------------| 


(Janick Gers) 
 
E|---------------------------------------------------| 
B|-10b-10b-8h10p8\7--8-7h8p7-------------------------| 
G|---------------------------9p7---7h9---------------| 
D|-------------------------------9-------------------| 
A|---------------------------------------------------| 
E|---------------------------------------------------| 


 
E|--------------------7h8p7----7h8h10----------------| 
B|-----7h8p7---7h8h10-------10-----------------------| 
G|-7h9-------9---------------------------------------| 
D|---------------------------------------------------| 
A|---------------------------------------------------| 
E|---------------------------------------------------| 


 
E|--10h12/14p12-----12h14h15-15b-15b--15-14-12----12-| 
B|--------------15-----------------------------12----| 
G|---------------------------------------------------| 
D|---------------------------------------------------| 
A|---------------------------------------------------| 
E|---------------------------------------------------| 


 
E|---------------------------------------------------| 
B|--15b----------------------------------------------| 
G|--------7br7p5-------------------------------------| 
D|---------------7p5---------------------------------| 
A|-------------------7p6p5\3--5br5-------------------| 
E|---------------------------------------------------| 


 
E|---------------------------------------------------| 
B|---------------------------------------------------| 
G|-----5-----4------5-----5-5------------------------| 
D|---------------------------------------------------| 
A|--7-----7------7-----7-----------------------------| 
E|---------------------------------------------------| 


 
E|---------------------------------------5h7p5---5h7-| 
B|-----------------------5h6p5----5h6h8--------8-----| 
G|---7---5---5h7p5---5h7--------7--------------------| 
D|-----7---7-------7---------------------------------| 
A|---------------------------------------------------| 
E|---------------------------------------------------| 


 
E|-8-10----------------------------------------------| 
B|------10-7b----------------------------------------| 
G|---------------------------------------------------| 
D|---------------------------------------------------| 
A|---------------------------------------------------| 
E|---------------------------------------------------| 


 
E|---------10h13p10h13p10----------------------------| 
B|-13b-13b----------------13--few times--------------| 
G|---------------------------------------------------| 
D|---------------------------------------------------| 
A|---------------------------------------------------| 
E|---------------------------------------------------| 


 
E|-10h12p10h12p10-----------------------10-----------| 
B|----------------13p10----10--------10----13--------| 
G|----------------------12-------12b-----------------| 
D|---------------------------------------------------| 
A|---------------------------------------------------| 
E|---------------------------------------------------| 


 
E|---------------------------------------------------| 
B|-12-10----10------------12p10----10----------------| 
G|-------13----13-12-10---------13----13p12p10-------| 
D|---------------------------------------------12----| 
A|---------------------------------------------------| 
E|---------------------------------------------------| 


 
E|---------------------------------------------------| 
B|---------------------------------------------------| 
G|-10h12--------10------9----------------------------| 
D|---------------------------------------------------| 
A|-----------12-----12-------------------------------| 
E|---------------------------------------------------| 


 
E|-15br15-13-12h13p12h13p12----12-13h15p13p12-----------| 
B|--------------------------13---------------few times--| 
G|------------------------------------------------------| 
D|------------------------------------------------------| 
A|------------------------------------------------------| 
E|------------------------------------------------------| 


 
E|-13br13-12-10-12-10---12p10h12p10-----10-----------| 
B|-----------------------------------13----13p11p10--| 
G|---------------------------------------------------| 
D|---------------------------------------------------| 
A|---------------------------------------------------| 
E|---------------------------------------------------| 


 
E|--------------12h13p12----12-----------------------| 
B|-h11p10----x-----------13----13--------------------| 
G|---------x----------------------14-----------------| 
D|---------------------------------------------------| 
A|---------------------------------------------------| 
E|---------------------------------------------------| 


 
E|----------------12h15\-----------------------------| 
B|-------------13------------------------------------| 
G|----------14---------------------------------------| 
D|-------14------------------------------------------| 
A|-12h15---------------------------------------------| 
E|---------------------------------------------------| 


(Adrian Smith) 
 
E|------7-7--------------8-7----------7-7------------| 
B|-8-10-----10-8--7-8-10-----10--8-10-----10-8-7-----| 
G|---------------------------------------------------| 
D|---------------------------------------------------| 
A|---------------------------------------------------| 
E|---------------------------------------------------| 


( Janick Gers / Dave Murray) 
 
E|---------------------------------------------------| 
B|---7-8-8-7--------7-10-8-7----7-8-8-7--------------| 
G|-9---------9--7-9-----------9---------9-7----------| 
D|---------------------------------------------------| 
A|---------------------------------------------------| 
E|---------------------------------------------------| 


 
E|--------------------------------------------------------| 
B|--------------------------------------------------------| 
G|--------------------------------------------9-9-9-9-9---| 
D|--------------------------------------------9-9-9-9-9---| 
A|--5h7-7-7-7--5h7--7-7-7-7-7--5h7--7-7-7-7---7-7-7-7-7---| 
E|--------------------------------------------------------| 
	  

Search Paypal
auto scroll beats size up size down change color hide chords drawings
tab show chords e-chords YouTube Clip e-chords hide all tabs e-chords go to top tab