Iron Maiden

home > Iron Maiden

The Idles Of March Tab

Iron Maiden

Difficulty: nolevelnolevel

tuner correct add songbook print version text version save to e-mail
chordsukulelecavacokeyboardtabbassdrumsharmonicsflute Guitar Pro
chords

The Idles Of March

  		
          intro riff                                                                        
E-------------------|------------------|------------------|------------- 
B-------------------|------------------|------------------|------------- 
G---9--------11-----|--12--------------|------------------|------------- 
D---9--------11-----|--12--------7--9--|--10--------9-----|------------- 
A---7--------9------|--10--------7--9--|--10--------9-----|------------- 
E-------------------|------------5--7--|--8---------7-----|------------- 
  
E-----------------|-----------------|--------------------|-------------- 
B-----------------|-----------------|--------------------|-------------- 
G-----------------|--7--------9-----|--11--------12--11--|-------------- 
D---7-----5p4-----|--7--------9-----|--11--------12--11--|-------------- 
A---7----------7--|--5--------7-----|--9---------10--9---|-------------- 
E---5-------------|-----------------|--------------------|-------------- 
  
E------------------|-----------------|---------------------------------- 
B------------------|-----------------|---------------------------------- 
G---9--------7-----|--9--------7-----|---------------------------------- 
D---9--------7-----|--9--------7-----|---------------------------------- 
A---7--------5-----|--7--------5-----|---------------------------------- 
E------------------|-----------------|---------------------------------- 
x 2 
 
E------|------------------|--------------------|------------------------ 
B---7--|--8--------10-----|--12--------13--15--|------------------------ 
G---7--|--9--------11-----|--12--------14--16--|------------------------ 
D------|------------------|--------------------|------------------------ 
A------|------------------|--------------------|------------------------ 
E------|------------------|--------------------|------------------------ 
  
E-----------------------|----------------------|-------------------|---- 
B---15^-------15h17p15--|--13--------15p13\12--|--10--------12-----|---- 
G---16^-------16h17p16--|--14--------16p14\12--|--11--------12-----|---- 
D-----------------------|----------------------|-------------------|---- 
A-----------------------|----------------------|-------------------|---- 
E-----------------------|----------------------|-------------------|---- 
  
E-----------------------|-------------------|------|-------------------- 
B---13--------13^---13--|--12--------10-----|--12--|-------------------- 
G---14--------14^---14--|--12--------11-----|--12--|-------------------- 
D-----------------------|-------------------|------|-------------------- 
A-----------------------|-------------------|------|-------------------- 
E-----------------------|-------------------|------|-------------------- 
x2 
 
E---------------------------------------------------|------------------- 
B---------------------------------------------------|------------------- 
G---9---9-9-9-9---9-9-9-9---9-9-9-11-11-11-11-11-11-|------------------- 
D---9---9-9-9-9---9-9-9-9---9-9-9-11-11-11-11-11-11-|------------------- 
A---7---7-7-7-7---7-7-7-7---7-7-7-9--9--9--9--9--9--|------------------- 
E---------------------------------------------------|------------------- 
  
E---------------------------------------------------------|------------- 
B---------------------------------------------------------|------------- 
G---12---12-12-12-12---12-12-12-12---12-12-12-------------|------------- 
D---12---12-12-12-12---12-12-12-12---12-12-12-7-7-7-9-9-9-|------------- 
A---10---10-10-10-10---10-10-10-10---10-10-10-7-7-7-9-9-9-|------------- 
E---------------------------------------------5-5-5-7-7-7-|------------- 
 
E---------------------------------------------------------|------------- 
B---------------------------------------------------------|------------- 
G---------------------------------------------------------|------------- 
D---10---10-10-10-10---10-10-10-10---10-10-10-9-9-9-9-9-9-|------------- 
A---10---10-10-10-10---10-10-10-10---10-10-10-9-9-9-9-9-9-|------------- 
E---8----8--8--8--8----8--8--8--8----8--8--8--7-7-7-7-7-7-|------------- 
 
E-------------------------------------------|--------------------------- 
B-------------------------------------------|--------------------------- 
G-------------------------------------------|--------------------------- 
D---7---7-7-7-7---7-7-7-7---7-7-7-7---7-7-7-|--------------------------- 
A---7---7-7-7-7---7-7-7-7---7-7-7-7---7-7-7-|--------------------------- 
E---5---5-5-5-5---5-5-5-5---5-5-5-5---5-5-5-|--------------------------- 
 
E---------------------------------------------|------------------------- 
B---------------------------------------------|------------------------- 
G---7---7-7-7-7---7-7-7-7---7-7-7-9-9-9-9-9-9-|------------------------- 
D---7---7-7-7-7---7-7-7-7---7-7-7-9-9-9-9-9-9-|------------------------- 
A---5---5-5-5-5---5-5-5-5---5-5-5-7-7-7-7-7-7-|------------------------- 
E---------------------------------------------|------------------------- 
  
E---------------------------------------------------------------|------- 
B---------------------------------------------------------------|------- 
G---11---11-11-11-11---11-11-11-11---11-11-11-12-12-12-11-11-11-|------- 
D---11---11-11-11-11---11-11-11-11---11-11-11-12-12-12-11-11-11-|------- 
A---9----9--9--9--9----9--9--9--9----9--9--9--10-10-10-9--9--9--|------- 
E---------------------------------------------------------------|------- 
  
E---------------------------------------------|------------------------- 
B---------------------------------------------|------------------------- 
G---9---9-9-9-9---9-9-9-9---9-9-9-7-7-7-7-7-7-|------------------------- 
D---9---9-9-9-9---9-9-9-9---9-9-9-7-7-7-7-7-7-|------------------------- 
A---7---7-7-7-7---7-7-7-7---7-7-7-5-5-5-5-5-5-|------------------------- 
E---------------------------------------------|------------------------- 
  
E---------------------------------------------|------------------------- 
B---------------------------------------------|------------------------- 
G---9---9-9-9-9---9-9-9-9---9-9-9-7-7-7-7-7-7-|------------------------- 
D---9---9-9-9-9---9-9-9-9---9-9-9-7-7-7-7-7-7-|------------------------- 
A---7---7-7-7-7---7-7-7-7---7-7-7-5-5-5-5-5-5-|------------------------- 
E---------------------------------------------|------------------------- 
harmony again 
 
E--------|-----------------------------|----------|------15^--15--|----- 
B---15^--|--15^--15p12-----------------|----------|--12-----------|----- 
G--------|--------------14^--(14)--12--|--14^--12\|---------------|----- 
D--------|-----------------------------|----------|---------------|----- 
A--------|-----------------------------|----------|---------------|----- 
E--------|-----------------------------|----------|---------------|----- 
  
E---12-------12---------------|--------12-------------------------|----- 
B-------15^------15--12--15^--|--(15)------15--12-----------------|----- 
G-----------------------------|--------------------15p14--12------|----- 
D-----------------------------|-------------------------------14--|----- 
A-----------------------------|-----------------------------------|----- 
E-----------------------------|-----------------------------------|----- 
  
E---------------------------------|------------------------------------- 
B---------------------------------|------------------------------------- 
G---12h14--12------12h14--12------|------------------------------------- 
D--------------14-------------14--|------------------------------------- 
A---------------------------------|------------------------------------- 
E---------------------------------|------------------------------------- 
  
E-----------------------------------|---------|------------------------- 
B-----------------------------------|---------|------------------------- 
G---12------------------------------|---------|------------------------- 
D-------14--12--10--12--10----------|---------|------------------------- 
A---------------------------12--10--|--10~~~--|------------------------- 
E-----------------------------------|---------|------------------------- 
  
E---15p14---------------|--------|--15p14----------17^--17~~~--|-------- 
B----------15------17^--|--(17)--|---------15------------------|-------- 
G--------------14-------|--------|-------------14--------------|-------- 
D-----------------------|--------|-----------------------------|-------- 
A-----------------------|--------|-----------------------------|-------- 
E-----------------------|--------|-----------------------------|-------- 
 
E---(17)--|-------12--------------12--12--12--|------------------------- 
B---------|--15^------15p12--15^--------------|------------------------- 
G---------|-----------------------------------|------------------------- 
D---------|-----------------------------------|------------------------- 
A---------|-----------------------------------|------------------------- 
E---------|-----------------------------------|------------------------- 
  
E---15p12------12------------------------------|------------------------ 
B----------15------15p12--15p12----------------|------------------------ 
G--------------------------------15p14p12------|------------------------ 
D------------------------------------------14--|------------------------ 
A----------------------------------------------|------------------------ 
E----------------------------------------------|------------------------ 
 
E-----------------------------|---------------------|------------------- 
B-----------------------------|---------------------|------------------- 
G---14--------12--------------|---------------------|------------------- 
D-----------------14--12------|---------------------|------------------- 
A-------------------------14--|--13--12--10---------|------------------- 
E-----------------------------|--------------12~~~--|------------------- 
 
E-----------------------------------------------------------|----------- 
B---12h15p12------12h15p12------12h15p12------12h15p12------|----------- 
G-------------14------------14------------14------------14--|----------- 
D-----------------------------------------------------------|----------- 
A-----------------------------------------------------------|----------- 
E-----------------------------------------------------------|----------- 
  
E------------------------------------------|------------|--------------- 
B---12h15p12------12h15p12------12--15/17--|--17^--17^--|--------------- 
G-------------14------------14-------------|------------|--------------- 
D------------------------------------------|------------|--------------- 
A------------------------------------------|------------|--------------- 
E------------------------------------------|------------|--------------- 
 
E----------------------------------------------------------------------- 
B---15--17p15--17p15p14--15p14--15p14----------------------------------- 
G--------------------------------------16--14\12--14p12--14p12---------- 
D---------------------------------------------------------------14------ 
A----------------------------------------------------------------------- 
E----------------------------------------------------------------------- 
   
E----------------------------------------|------------------------------ 
B----------------------------------------|------------------------------ 
G---12h14--12------12p11------12p11------|------------------------------ 
D--------------14---------14---------14--|------------------------------ 
A----------------------------------------|------------------------------ 
E----------------------------------------|------------------------------ 
  
E----------------------------------------------------------------------- 
B----------------------------------------------------------------------- 
G---------------------11--12------------------------------12------------ 
D----------11--12h14----------14--12--14----------12--14------14-------- 
A---12h14---------------------------------12--14------------------------ 
E----------------------------------------------------------------------- 
  
E--------|--15^-----15^--15^--15^--|------------------------------------ 
B--------|-------------------------|------------------------------------ 
G--------|-------------------------|------------------------------------ 
D---~~~--|-------------------------|------------------------------------ 
A--------|-------------------------|------------------------------------ 
E--------|-------------------------|------------------------------------ 
   
E---17^--17^--17^--15p14--15p14--12--14p12------|----------------------- 
B-------------------------------------------15--|----------------------- 
G-----------------------------------------------|----------------------- 
D-----------------------------------------------|----------------------- 
A-----------------------------------------------|----------------------- 
E-----------------------------------------------|----------------------- 
  
    t          t          t          t                                   
E---19--15p12--19--15p12--19--15p12--19--15p12--|----------------------- 
B-----------------------------------------------|----------------------- 
G-----------------------------------------------|----------------------- 
D-----------------------------------------------|----------------------- 
A-----------------------------------------------|----------------------- 
E-----------------------------------------------|----------------------- 
  
    t          t          t          t                                   
E---19--15p12--19--15p12--17--14p12--17--14p12--|----------------------- 
B-----------------------------------------------|----------------------- 
G-----------------------------------------------|----------------------- 
D-----------------------------------------------|----------------------- 
A-----------------------------------------------|----------------------- 
E-----------------------------------------------|----------------------- 
 
    t          t          t          t                                   
E---19--15p12--19--15p12--19--15p12--19--15p12--|----------------------- 
B-----------------------------------------------|----------------------- 
G-----------------------------------------------|----------------------- 
D-----------------------------------------------|----------------------- 
A-----------------------------------------------|----------------------- 
E-----------------------------------------------|----------------------- 
 
    t          t          t          t                                   
E---19--15p12--19--15p12--17--14p12--17--14p12--|----------------------- 
B-----------------------------------------------|----------------------- 
G-----------------------------------------------|----------------------- 
D-----------------------------------------------|----------------------- 
A-----------------------------------------------|----------------------- 
E-----------------------------------------------|----------------------- 
 

	  

Search Paypal
auto scroll beats size up size down change color hide chords drawings
tab show chords e-chords YouTube Clip e-chords hide all tabs e-chords go to top tab