Iron Maiden

home > Iron Maiden

Invaders Bass Tab

Iron Maiden

Difficulty: nolevelnolevel

by betobassmtuloko

tuner correct add songbook print version text version save to e-mail
chordsukulelecavacokeyboardtabbassdrummharmonicsflute Guitar Pro
chords

Invaders

Year: 1982 - Album: The Number of the Beast

  		Intro: 
------ 
           {x3}  
G-|---||-----------------------------5-------7------/9----|| 
D-|-6-||-------------------------5-------5-------5--------|| 
A-|-4-||-7-7-7-7-7-R-3-R---5------------------------------|| 
E-|---||--------------------------------------------------|| 
 
     
G-|-------------------------------------------------| 
D-|-------------------------------------------------| 
A-|-7-7-7-7-R---3-3-3-3-R---5-5-3-5-----------------| 
E-|-------------------------------------------------| 
 
 
Riff 1: 
------- 
         
G-|---||-----------------|----------------| 
D-|-4-||-----------7-5---|-5---5----------| 
A-|-4-||-0---0-5h7-----7-|---------0-5-3--| 
E-|---||-----------------|----------------| 
 
     {x4} 
G-|-----------------|-----------------|| 
D-|-----------7-5---|-----------2-5---|| 
A-|-0---0-5h7-----7-|-3---3-3-5-----3-|| 
E-|-----------------|-----------------|| 
          
      
Verse:      
------ 
      
G-||-----------------|-----------9-7---| 
D-||-----------------|-------7h9-----9-| 
A-||-7---7-7-7-7-7-7-|-7---7-----------| 
E-||-----------------|-----------------| 
 
     {x2} 
G-|-----------------|-----------7-5---|| 
D-|-----------------|-------5h7-----7-|| 
A-|-3---3-3-3-3-3-3-|-5---5-----------|| 
E-|-----------------|-----------------|| 
 
    
G-|-----------------|-----9---7-------| 
D-|-----------------|-----------9-7---| 
A-|-7---7-7-7-7-7-7-|-7-------------10| 
E-|-----------------|-----------------| 
 
    
G-|-----------------|-----------7-5---| 
D-|-----------------|-------5h7-----7-| 
A-|-3---3-3-3-3-3-3-|-5---5-----------| 
E-|-----------------|-----------------| 
 
    
G-|-----------------|-----------9-7---| 
D-|-----------------|-------7h9-----9-| 
A-|-7---7-7-7-7-7-7-|-7---7-----------| 
E-|-----------------|-----------------| 
 
    
G-|-----------------|-----------7-5---| 
D-|-----------------|-------5h7-----7-| 
A-|-3---3-3-3-3-3-3-|-5---5-----------| 
E-|-----------------|-----------------| 
 
 
Riff 2: 
------ 
     {x4} 
G-||-----------------|| 
D-||-----------------|| 
A-||-7-----5---4-----|| 
E-||-------------5-3-|| 
 
 
Riff 3: 
------ 
      {x4} 
G-||-----------------|-----------------|| 
D-||-----------------|-----------------|| 
A-||-----------------|-------R---R-----|| 
E-||-7-7-7-7-7-7-7-7-|-7-7-4---4---4-5-|| 
 
 
Chorus: 
------ 
      
G-||-----------------|-----5-6-8-------| 
D-||-----------------|-6-8-------------| 
A-||-R---6-------R---|-----------R-----| 
E-||---------4-------|-----------------| 
      
      {x2} 
G-||-----------------|-6h8--6-5---------|| 
D-||-----------------|----------8-6-5---|| 
A-||-R---6-------R---|----------------8-|| 
E-||---------4-------|------------------|| 
      
 
Guitar Solo: 
------------ 
      
G-||-----------------|-----------------| 
D-||-3-2-------------|-----------------| 
A-||-----5-3---3-3-3-|-3-3-3-3-3-3-3-3-| 
E-||-----------------|-----------------| 
 
     
G-|-----------------|-----------------| 
D-|-3-2-----3-2-----|-3-2-----3-2-----| 
A-|-----5-3-----5-3-|-----5-3-----5-3-| 
E-|-----------------|-----------------| 
 
    
G-|-----------------|-----------------| 
D-|-----------------|-----------------| 
A-|-3-2-------------|-----------------| 
E-|-----5-3---3-3-3-|-3-3-3-3-3-3-3-3-| 
 
     {x2} 
G-|-----------------|-----------------|| 
D-|-----------------|-----------------|| 
A-|-3-2-----3-2-----|-3-2-----3-2-----|| 
E-|-----5-3-----5-3-|-----5-3-----5-3-|| 
 
 
Outro: 
------  {x3}  
G-|---||-----------------------------5-------7------/9----|| 
D-|-6-||-------------------------5-------5-------5--------|| 
A-|-4-||-7-7-7-7-7-R-3-R---5------------------------------|| 
E-|---||--------------------------------------------------|| 
 
     
G-|-------------------------------------------------| 
D-|-------------------------------------------------| 
A-|-7-7-7-7-R---3-3-3-3-R---7-7-5-7-----------------| 
E-|-------------------------------------------------| 
 
 
 
Song-structure: 
============== 
Intro 
Riff 1  
--Verse  
Riff 2 
Riff 3  
--Chorus  
Riff 2  
--Verse  
Riff 2  
Riff 3  
--Chorus  
Riff 1 
Guitar solo 
Riff 2  
--Verse  
Riff 2  
Riff 3  
--Chorus  
Outro 
 
 
Na marca Invaders iron maiden :<> : [email protected] 

	  

Search Paypal
auto scroll beats size up size down change color hide chords drawings
tab show chords e-chords YouTube Clip e-chords hide all tabs e-chords go to top tab