Iron Maiden

home > Iron Maiden

Revelations (Ver. 2) Tab

Iron Maiden

Difficulty: BeginnerBeginner

by wickedman

tuner correct add songbook print version text version save to e-mail
chordsukulelecavacokeyboardtabbassdrumsharmonicsflute Guitar Pro
chords

Revelations (Ver. 2)

  		 
  Introdução - Riff 1 
 
  Guitarra I 
 
          G Am G   Am       C                    G5  D5          (4x) 
 ||--------------|-------------------------|----------------------|| 
 ||o-------------|-------------------------|---------------------o|| 
 ||---------2----|-2-------^0-2p0----------|---------7------------|| 
 ||---------2----|-2-------^2-----2--------|-----5---7------------|| 
 ||o--------0----|-0-------^3-----3--------|-----5---5-----------o|| 
 ||-------3----3-|-------------------------|-----3----------------|| 
 
 
 
   Riff 2 (Tocado pelas duas guitarras) 
 
    Am        F5         G5        Am        G 
 |---------------------|--------------------------| 
 |---------------------|--------------------------| 
 |--2--2---------------|-----------2--2--2--------| 
 |--2--2------3--3-----|-5--5------2--2--2--------| 
 |--0--0------3--3-----|-5--5------0--0--0--------| 
 |------------1--1-----|-3--3----------------3----| 
 
 
 
 
  Verso 1 (Sobre o Riff 2) 
  Atente para a variação no fim do verso, onde é tocada 
  uma parte do Riff2 e o início de um pequeno solo (Riff 3). 
  Cada guitarra toca um conjunto de notas diferentes e 
  há também um acompanhamento feito por uma terceira guitarra, 
  tocada por Bruce Dickinson, na versão ao vivo. 
 
 
  G   Am               F5 
 "O   God of Earth and Altar 
     G                 Am 
 Bow down and hear our cry 
 G   Am             F5 
 Our earthly rulers falter 
     G                Am  G 
 Our people drift and die 
     Am               F5 
 The walls of gold entomb us 
        G               Am 
 The swords of scorn divide 
 G    Am              F5 
 Take not thy thunder from us 
 
  
      Guitarra 1 
      G5         (Aqui começa o Riff 3) 
    |------------------|---------------------------------------------------| 
    |------------10--8-|-10-----------------10--8--6-----------------8--6--| 
    |------------------|---------------------------------------------------| 
    |-5--5-------------|---------------------------------------------------| 
    |-5--5-------------|---------------------------------------------------| 
    |-3--3-------------|---------------------------------------------------| 
    | 
    | 
    | Guitarra 2 
    |------------------|---------------------------------------------------| 
    |------------------|---------------------------------------------------| 
    |------------9---7-|-9------------------10--9--7-----------------9--7--| 
    |-5--5-------------|---------------------------------------------------| 
    |-5--5-------------|---------------------------------------------------| 
    |-3--3-------------|---------------------------------------------------| 
    | 
    | 
    | Guitarra 3          Am          Am7          F 
    |------------------|---------------------------------------------------| 
    |------------------|--------1------------1-----------1-----------1-----| 
    |------------------|-----------2------------0-----------2-----------2--| 
    |------------------|-----2-----------2------------3-----------3--------| 
    |------------------|--0-----------0------------3-----------3-----------| 
    |------------------|---------------------------------------------------| 
  But take away  our     pride." 
  
 
 
 
  Guitarra 1 
 |-----------------------------------------------------------| 
 |--5-----------------------10--8h10p8---------------10--8---| 
 |-----------7--5-----4----------------10--9--10p9-----------| 
 |-----------------------------------------------------------| 
 |-----------------------------------------------------------| 
 |-----------------------------------------------------------| 
 | 
 |Guitarra 2 
 |-----------------------------------------------------------| 
 |---------------------------6--5h6p5------------------------| 
 |--5-----------------------------------7--5---7p5----9--7---| 
 |-----------9--7-----5--------------------------------------| 
 |-----------------------------------------------------------| 
 |-----------------------------------------------------------| 
 | 
 |Guitarra 3 
 | 
 |  C                        Csus2/B 
 |-----------------------------------------------------------| 
 |--------1-----------1-----------------1-------------1------| 
 |-----------0-----------0-----------------0-------------0---| 
 |-----2-----------2------------0-----------------0----------| 
 |--3-----------3------------2-----------------2-------------| 
 |-----------------------------------------------------------| 
 
 
 
  Guitarra 1 
 |---------------------------------------------------|---------------------------------------------------------| 
 |-10-----------------10--8--6-----------------8--6--|-5-----------------------10--8h10p8---------------13--12-| 
 |---------------------------------------------------|----------7--5-----4----------------10--9--10p9----------| 
 |---------------------------------------------------|---------------------------------------------------------| 
 |---------------------------------------------------|---------------------------------------------------------| 
 |---------------------------------------------------|---------------------------------------------------------| 
 | 
 |Guitarra 2 
 |---------------------------------------------------|---------------------------------------------------------| 
 |---------------------------------------------------|--------------------------6--5h6p5-----------------------| 
 |--9-----------------10--9--7-----------------9--7--|-5-----------------------------------7--5---7p5----9---7-| 
 |---------------------------------------------------|----------9--7-----5-------------------------------------| 
 |---------------------------------------------------|---------------------------------------------------------| 
 |---------------------------------------------------|---------------------------------------------------------| 
 | 
 |Guitarra 3 
 | 
 |  Am          Am7          F                         C                        Csus2/B 
 |---------------------------------------------------|---------------------------------------------------------| 
 |--------1------------1-----------1-----------1-----|-------1-----------1-----------------1-------------1-----| 
 |-----------2------------0-----------2-----------2--|----------0-----------0-----------------0--------------0-| 
 |-----2-----------2------------3-----------3--------|----2-----------2------------0-----------------0---------| 
 |--0-----------0------------3-----------3-----------|-3-----------3------------2-----------------2------------| 
 |---------------------------------------------------|---------------------------------------------------------| 
 
 
 
  Guitarra 1 
 |-------------------------------------------------------|-----------------------------------------------------------| 
 |-13-----------------13--12--10---------------------10--|---------------------------10--8h10p8---------------13--12-| 
 |-----------------------------------------------12------|-12--------10--9-----7----------------10--9--10p9----------| 
 |-------------------------------------------------------|-----------------------------------------------------------| 
 |-------------------------------------------------------|-----------------------------------------------------------| 
 |-------------------------------------------------------|-----------------------------------------------------------| 
 | 
 |Guitarra 2 
 |-------------------------------------------------------|-----------------------------------------------------------| 
 |-------------------------------------------------------|----------------------------6--5h6p5-----------------------| 
 |--9-----------------10---9---7------------------9---7--|--5------------------------------------7--5---7p5----9---7-| 
 |-------------------------------------------------------|------------9--7-----5-------------------------------------| 
 |-------------------------------------------------------|-----------------------------------------------------------| 
 |-------------------------------------------------------|-----------------------------------------------------------| 
 | 
 |Guitarra 3 
 | 
 |  Am          Am7            F                            C                         Csus2/B 
 |-------------------------------------------------------|-----------------------------------------------------------| 
 |--------1------------1-------------1------------1------|--------1------------1-----------------1-------------1-----| 
 |-----------2-------------0------------2-------------2--|------------0-----------0-----------------0--------------0-| 
 |-----2-----------2--------------3-----------3----------|-----2------------2------------0-----------------0---------| 
 |--0-----------0--------------3-----------3-------------|--3------------3------------2-----------------2------------| 
 |-------------------------------------------------------|-----------------------------------------------------------| 
 
 
 
  Guitarra 1 
 |-------------------------------------------------------|-----------------------------------------------------------| 
 |-13-----------------13--12--10---------------------10--|---------------------------10--8h10p8----------------------| 
 |-----------------------------------------------12------|-12--------10--9-----7----------------10--9--10p9----------| 
 |-------------------------------------------------------|-----------------------------------------------------------| 
 |-------------------------------------------------------|-----------------------------------------------------------| 
 |-------------------------------------------------------|-----------------------------------------------------------| 
 | 
 |Guitarra 2 
 |-------------------------------------------------------|-----------------------------------------------------------| 
 |-------------------------------------------------------|----------------------------6--5h6p5-----------------------| 
 |--9-----------------10---9---7------------------9---7--|--5------------------------------------7--5---7p5----------| 
 |-------------------------------------------------------|------------9--7-----5-------------------------------------| 
 |-------------------------------------------------------|-----------------------------------------------------------| 
 |-------------------------------------------------------|-----------------------------------------------------------| 
 | 
 |Guitarra 3 
 | 
 |  Am          Am7            F                            C                         Csus2/B 
 |-------------------------------------------------------|-----------------------------------------------------------| 
 |--------1------------1-------------1------------1------|--------1------------1-----------------1-------------------| 
 |-----------2-------------0------------2-------------2--|------------0-----------0-----------------0----------------| 
 |-----2-----------2--------------3-----------3----------|-----2------------2------------0-----------------0---------| 
 |--0-----------0--------------3-----------3-------------|--3------------3------------2-----------------2------------| 
 |-------------------------------------------------------|-----------------------------------------------------------| 
 
 
 
 
  Riff 4 
   
  Guitarras 1 e 2 
 
   Am G5 Am      Am G5 Am          G5   D5      F5    G5 (2x) 
 |--------------------|----------|-----------|-----------| 
 |--------------------|----------|-----------|-----------| 
 |--------------------|----------|-----------|-----------| 
 |--------------------|----------|------7----|-----------| 
 |-7--5--7-------7--5-|-7--------|-5----5----|--3-----5--| 
 |-5--3--5-------5--3-|-5--------|-3---------|--1-----3--| 
 
 
 
 Riff 5 
 Repita esse riff 3 vezes. Na quarta vez, há uma mudança 
 no tempo e no último compasso do riff, preparando para 
 a entrada da próxima parte. 
 
 
   Guitarra 1                                                                                          (3x) 
 ||----------------|----------------------|-------------------|--------------------------|--------------|| 
 ||o---------13-12-|-13\---------13-12-13-|----------13-12-13-|-----12-10-12-----10-8-10-|-----8-6-8---o|| 
 ||----------------|----------------------|-------------------|--------------------------|--------------|| 
 ||----------------|----------------------|-------------------|--------------------------|--------------|| 
 ||o---------------|----------------------|-------------------|--------------------------|-------------o|| 
 ||----------------|----------------------|-------------------|--------------------------|--------------|| 
 | 
 | Guitarra 2 
 | 
 |            Am G    Am             G  Am                  G5             D5          F5          G5 
 ||----------------|----------------------|-------------------|--------------------------|--------------|| 
 ||o---------------|----------------------|-------------------|--------------------------|-------------o|| 
 ||-----------2--0-|--2--2-2-2-2--2-----2-|--2-2-2-2--2-------|------------7-------------|--------------|| 
 ||-----------2--0-|--2--2-2-2-2--2-----2-|--2-2-2-2--2-----5-|------------7-----------3-|---------5----|| 
 ||o----------0----|--0--0-0-0-0--0-----0-|--0-0-0-0--0--0--5-|------------5-----------3-|---------5---o|| 
 ||----------------|-----------------3----|-----------------3-|------------------------1-|---------3----|| 
 
 
 
   Guitarra 1                                                                                           
 |----------------|----------------------|-------------------|---------------------| 
 |----------13-12-|-13\---------13-12-13-|----------13---12--|-13---12---10--------| 
 |----------------|----------------------|-------------------|----------------12---| 
 |----------------|----------------------|-------------------|---------------------| 
 |----------------|----------------------|-------------------|---------------------| 
 |----------------|----------------------|-------------------|---------------------| 
 | 
 | Guitarra 2 
 | 
 |           Am G    Am             G  Am                     G5    D5   F5   G5 
 |----------------|----------------------|-------------------|---------------------| 
 |----------------|----------------------|-------------------|---------------------| 
 |-----------2--0-|--2--2-2-2-2--2-----2-|--2-2-2-2--2-------|------7--------------| 
 |-----------2--0-|--2--2-2-2-2--2-----2-|--2-2-2-2--2-------|-5----7----3----5----| 
 |-----------0----|--0--0-0-0-0--0-----0-|--0-0-0-0--0----0--|-5----5----3----5----| 
 |----------------|-----------------3----|-------------------|-3---------1----3----| 
 
 
 
 
 Riff 6 
 Este riff é o mesmo que aparece depois do verso 1, tocado 
 pela guitarra 3. Aqui ele é tocado por duas guitarras e acompanha  
 os versos 2 e 3. Toque-o duas vezes antes de começar o verso 2 
 e uma vez antes de começar o verso 3. 
 
 
     Am      Am7     F                 C               Csus2/B 
 |-----------------------------------|----------------------------------| 
 |-------1-------1-------1-------1---|-----1-------1-------1-------1----| 
 |---------2-------0-------2-------2-|-------0-------0-------0-------0--| 
 |-----2-------2-------3-------3-----|---2-------2-------0-------0------| 
 |---0-------0-------3-------3-------|-3-------3-------2-------2--------| 
 |-----------------------------------|----------------------------------| 
 
 
 
 Verso 2 (sobre o Riff 6) 
 
 Am     Am7       F 
 Just a babe in a black abyss 
    C            Csus2/B 
 No reason for a place   like this 
     Am           Am7     F                C    Csus2/B 
 The walls are cold   and souls cry out in pain 
    Am    Am7         F 
 An easy way  for the blind to go 
   C                   Csus2/B 
 A clever path for the fools who know 
     Am    Am7        F 
 The Secret    of the Hanged Man 
C                Csus2/B 
 The smile on his lips 
 
 
 
 Riff 7 
 Este riff é tocado durante o Refrão, por duas guitarras. 
 
  
    Am       G   Am       C5    D5      F5   G5 
 |----------------------------|------------------------| 
 |----------------------------|------------------------| 
 |--2------2-----2------2-5---|-7----------------------| 
 |--2------2-----2------2-5---|-7-------3----5---------| 
 |--0--0-0-0-----0--0-0-0-3---|-5-------3----5---------| 
 |-----------3----------------|---------1----3---------| 
 
 
 
  
 Refrão (sobre o Riff 7) 
 
 
Am          G        Am      C5     D5 
  The light   of the Blind - you'll see 
      F5         G5        Am   G  Am 
  The venom that tears my spine 
           C5        D5       F5      G5         Am (Aqui, já no Riff 6) 
  The Eyes    of the Nile are opening   - you'll see 
 
 
 
 
 Verso 3 (Sobre o Riff 6) 
 
 
     Am      Am7        F 
 She came to me  with a serpent's kiss 
        C                   Csus2/B 
 As the Eye of the Sun Rose        on her lips 
 Am        Am7     F              C    Csus2/B 
 Moonlight catches silver tears I cry 
 Am    Am7        F 
 So we lay in the black embrace 
         C                 Csus2/B 
 And the Seed is sown in a holy    place 
       Am       Am7    F             C     Csus2/B 
 And I watched, and I waited for the dawn 
 
 
 
 
 Refrão (sobre o Riff 7) 
 
 
Am          G        Am      C5     D5 
  The light   of the Blind - you'll see 
      F5         G5        Am   G  Am 
  The venom that tears my spine 
           C5        D5       F5      G5         Am 
  The Eyes    of the Nile are opening   - you'll see 
 
 
 
  Novamente o Riff 4 
 
  Guitarras 1 e 2 
 
   Am G5 Am      Am G5 Am          G5   D5      F5    G5 (2x) 
 |--------------------|----------|-----------|-----------| 
 |--------------------|----------|-----------|-----------| 
 |--------------------|----------|-----------|-----------| 
 |--------------------|----------|------7----|-----------| 
 |-7--5--7-------7--5-|-7--------|-5----5----|--3-----5--| 
 |-5--3--5-------5--3-|-5--------|-3---------|--1-----3--| 
 
 
 
 Agora, toque o Riff 5 apenas duas vezes e sem o solo. 
 Nota: é tocado por ambas as guitarras. 
 
 
           Am G    Am             G  Am                  G5             D5          F5          G5  (2x) 
 ||-------------|----------------------|-------------------|--------------------------|--------------|| 
 ||o------------|----------------------|-------------------|--------------------------|-------------o|| 
 ||--------2--0-|--2--2-2-2-2--2-----2-|--2-2-2-2--2-------|------------7-------------|--------------|| 
 ||--------2--0-|--2--2-2-2-2--2-----2-|--2-2-2-2--2-----5-|------------7-----------3-|---------5----|| 
 ||o-------0----|--0--0-0-0-0--0-----0-|--0-0-0-0--0--0--5-|------------5-----------3-|---------5---o|| 
 ||-------------|-----------------3----|-----------------3-|------------------------1-|---------3----|| 
 
 
 
            (Solo) 
 
  A base do solo é a seguinte: 
 
  * No início, Temos um pedacinho do Riff 5, como é mostrado abaixo: 
 
           G     Am G  Am         Am                                                D5       C5    B5 
 |--------------------------|--------------------------|-------------------------|------------------------| 
 |--------------------------|--------------------------|-------------------------|------------------------| 
 |---------------2-----2----|--------2--------2-----2--|--------2--------2-------|--7--7-----5-----4------| 
 |---------------2-----2----|--------2--------2-----2--|--------2--------2-------|--7--7-----5-----4------| 
 |---------------0-----0----|-----0-----0--0-----0-----|-----0-----0--0-------0--|--------0---------------| 
 |---------3--------3-------|--------------------------|-------------------------|------------------------| 
 
 
  * Logo após o trecho acima, toque repetidamente o riff abaixo, até o fim do solo. 
 
    Am                                                                              D5       C5    B5 
 |--------------------------|--------------------------|-------------------------|------------------------| 
 |--------------------------|--------------------------|-------------------------|------------------------| 
 |-----------------2-----2--|--------2--------2-----2--|--------2--------2-------|--7--7-----5-----4------| 
 |-----------------2-----2--|--------2--------2-----2--|--------2--------2-------|--7--7-----5-----4------| 
 |--0--0--0--0--0-----0-----|-----0-----0--0-----0-----|-----0-----0--0-------0--|--------0---------------| 
 |--------------------------|--------------------------|-------------------------|------------------------| 
 
 
 
 Após o solo, vem: 
 
 
   Riff 9 
 
    Guitarra 1                                                                 (4x) 
 ||--------------------|-------------------|------------------|-----------------|| 
 ||o-------------------|-------------------|------------------|----------------o|| 
 ||--------------------|-------------------|------------------|-----------------|| 
 ||----7-10-9-----7----|-------------------|------------------|---2-------------|| 
 ||o-7--------------7--|-7-8-10-8-----7----|---5-7-5----------|-3---5-3--------o|| 
 ||--------------------|----------------8--|-8-----------8-5--|-----------------|| 
 | 
 | 
 |   Guitarra 2 
 ||--------------------|-------------------|------------------|-----------------|| 
 ||o-------------------|-------------------|------------------|----------------o|| 
 ||--------------------|-------------------|------------------|-----------------|| 
 ||-------7-5----------|-------------------|------------------|-------2---------|| 
 ||o-5h7----------7-5--|-3h5--7-5-----3----|-----3-2----------|-----3-0--------o|| 
 ||--------------------|----------------5--|-1h3---------3-1--|-1h3-------------|| 
 
 
 
 
 Em seguida: 
 
           Am G    Am             G  Am                  G5             D5          F5          G5  (4x) 
 ||-------------|----------------------|-------------------|--------------------------|--------------|| 
 ||o------------|----------------------|-------------------|--------------------------|-------------o|| 
 ||--------2--0-|--2--2-2-2-2--2-----2-|--2-2-2-2--2-------|------------7-------------|--------------|| 
 ||--------2--0-|--2--2-2-2-2--2-----2-|--2-2-2-2--2-----5-|------------7-----------3-|---------5----|| 
 ||o-------0----|--0--0-0-0-0--0-----0-|--0-0-0-0--0--0--5-|------------5-----------3-|---------5---o|| 
 ||-------------|-----------------3----|-----------------3-|------------------------1-|---------3----|| 
 
                                                         Nota: ouça a música para perceber a mudança 
                                                               de tempo que aconteçe na quarta vez em 
                                                               que esse riff é tocado. 
 
 
 
 Novamente, o Riff 2 (Tocado pelas duas guitarras) 
 Nota: toque uma vez o Riff 2 antes do verso 4 
 
    Am        F5         G5        Am        G 
 |---------------------|--------------------------| 
 |---------------------|--------------------------| 
 |--2--2---------------|-----------2--2--2--------| 
 |--2--2------3--3-----|-5--5------2--2--2--------| 
 |--0--0------3--3-----|-5--5------0--0--0--------| 
 |------------1--1-----|-3--3----------------3----| 
 
 
  
 
 Verso 4 (sobre o Riff 2) 
 Nota: Na penúltima linha do verso, há a passagem 
 para o Riff 6. Ouça a música. 
 
 
 G    Am           F5 
 Bind all of us together 
  G5                  Am 
 Ablaze with Hope and Free 
 G   Am              F5 
 No storm or heavy weather 
      G5                    Am   G 
 Will rock the boat you'll see 
     Am               F5 
 The time has come to close your eyes 
      G5                Am 
 And still the wind and rain 
 G       Am                   F5 
 For the one who will be King 
 
        G5             Am   Am7  F  C 
 Is the Watcher in the Ring 
  
 Csus2/B     Am  Am7  F   C  Csus2/B (Aqui há uma mudança de tempo) 
 It       is You      Ohh 
  
     Am                      
  |-----------------0------|| 
  |-------------1----------|| 
  |---------2--------------|| 
  |-------2----------------|| 
  |--0---------------------|| 
  |------------------------|| Final 
 
 
 
 
 

	  

Full key step upFull key step up
Half key step upHalf key step up
Half key step downHalf key step down
Full key step downFull key step down
Search Paypal
auto scroll beats size up size down change color hide chords drawings
tab show chords e-chords YouTube Clip e-chords hide all tabs e-chords go to top tab