Iron Maiden

home > Iron Maiden

Lord Of Light Tab

Iron Maiden

Difficulty: ExpertExpert

by tarikike

tuner correct add songbook print version text version save to e-mail
chordsukulelecavacokeyboardtabbassdrumsharmonicsflute Guitar Pro
chords

Lord Of Light

Year: 2006 - Album: A Matter Of Life And Death

  		


       Intro (7x)     (Keep...3x)   (There are secrets that u tell me alone) 

       e|--------0-----|-------0-----|-------0----------------0------------0-------- 
       B|------1---1---|-----1---1---|-----1---1------------1---1--------1---1------ 
       G|----4-------4-|---4-------4-|---4-------4--------4-------4----4-------4---- 
       D|--2-----------|-0-----------|-------------------------------0-----------0-- 
       A|--------------|-------------|-3-----------3-2-0---------------------------- 
       E|--------------|-------------|---------------------------------------------- 

                         
       (1:05min) 
       e|--------------------------------|-------------------------------------- 
       B|--------------------------------|-------------------------------------- 
       G|--4-4--2--4------2--------------|--4-4-2-4---2------------------------- 
       D|-------------5-5---4-4-5-4-2-(0)|----------5---4-5-4-2-(0)~------------ 
       A|--------------------------------|-------------------------------------- 
       E|--------------------------------|-------------------------------------- 

       Guitar 2   1:13min (x2)                       Ending to intro 
       E|---------------------------------------------|---0~~------------------- 
       B|---------------------------------------------|---0~~------------------- 
       G|--12-12--10--12------10----------------------|---9~~------------------- 
       D|-----------------12------11--12--11--9-------|---9~~------------------- 
       A|----------------------------------------(12)-|---7~~------------------- 
       E|---------------------------------------------|---0~~------------------- 

        
       (1:39min) 
       e|------------------------------------------------------------------------- 
       B|------------------------------------------------------------------------- 
       G|-----------------------------------------------------------------7---5--- 
       D|--9-------9-------9-----9---------9----7------9-----9-----9--5>7---7---7~ 
       A|--7-7-7-7-7-7-7-7-7-7-7-7-7-7-7>9---10---9~~--7-7-7-7-7-7-7-------------- 
       E|------------------------------------------------------------------------- 

       e|------------------------------------------------------------------------------ 
       B|------------------------------------------------------------------------------ 
       G|------------------------------------------------------------------------------ 
       D|--9-------9-------9-----9-------9----7------7-----7-----7-----7------9----7--- 
       A|--7-7-7-7-7-7-7-7-7-7-7-7---7>9---10---9~~--5-5-5-5-5-5-5-5-5-5--7>9---10---9~ 
       E|------------------------------------------------------------------------------ 

       e|------------------------------------------------------------------------------ 
       B|------------------------------------------------------------------------------ 
       G|------------------------------------------------------------------------------ 
       D|--9-------9-------9-----9-------9----7------7-----7-----7-----7------9----7--- 
       A|--7-7-7-7-7-7-7-7-7-7-7-7---7>9---10---9~~--5-5-5-5-5-5-5-5-5-5--7>9---10---9~ 
       E|------------------------------------------------------------------------------ 

        
       e|----------------------------------------------------------------------- 
       B|----------------------------------------------------------------------- 
       G|--2-------2-------2-------2-----5-------5----7~~----------------------- 
       D|--2-------2-------2-------2-----5-------5----7~~----------------------- 
       A|--0-0-0-0-0-0-0-0-0-0-0-0-0-----3-3-3-3-3-3--5~~----------------------- 
       E|----------------------------------------------------------------------- 

       (2:26min)  
       e|----------------------------------------------------------------------- 
       B|----------------------------------------------------------------------- 
       G|----------------------------------------------------------------------- 
       D|--9-9-7-9----7--------------9-9-7-9--10--9-7-9----7----7--------------- 
       A|----------10---9--10-9-7~----------------------10---10---7------------- 
       E|----------------------------------------------------------------------- 
      
       (3:01min)x4 
       e|-------------------------------------------------------------------------- 
       B|-------------------------------------------------------------------------- 
       G|-------------5--------7>9--7-------7---4--------5>7--5---------5--7--9--7- 
       D|--2---5-5-5--5--------7>9--7-------7---4--------5>7--5---------5--7--9--7- 
       A|--2---5-5-5--3-3-3-3--5>7--5-5-5-5-5---2-2-2-2--3>5--3-3-3-3---3--5--7--5- 
       E|--0-0-3-3-3--------------------------------------------------------------- 

       (3:44)      (3:51)x4 
       e|----------|-----------0--------------0--------------0---------------0------- 
       B|----------|---------0---0----------0---0----------0---0-----------0---0----- 
       G|----------|-------0-------0------0-------0------0-------0-------0-------0--- 
       D|--2~~-----|-----4--------------4--------------4-----------4---4-----------4- 
       A|--2~~-----|---------------------------------3---------------3--------------- 
       E|--0~~-----|--0---------------0---------------------------------------------- 


       (4:16min)x2, then back do the '3:51' bit 
       e|---------0---------------0--------------------0-----------------0----------- 
       B|-------0---0-----------0---0----------------0---0-1-----------0---0-1------- 
       G|-----2-------2-------2-------2------------2---------2-------2---------2----- 
       D|---2-----------2---2-----------2--------3-----------------3----------------- 
       A|-0---------------0---------------0------------------------------------------ 
       E|------------------------------------1-------------------1------------------- 

       (4:53min) 
       e|----------------------------------------------------------------------- 
       B|----------------------------------------------------------------------- 
       G|--9-----9----9-9---12-11---9-----9---9-9---5-5---8--------------------- 
       D|--9-----9----9-9---12-11---9-----9---9-9---5-5---8--------------------- 
       A|--7-7-7-7--7-7-7-7-10-9----7-7-7-7-7-7-7---3-3-3-6--------------------- 
       E|----------------------------------------------------------------------- 

       Sem Solos 

       (After solo) 
       e|----------------------------------------------------------------------- 
       B|----------------------------------------------------------------------- 
       G|----------2----------------2----------------2----------------2--------- 
       D|-2~-2-4-5---5-4-5------4-5---5-4-5------4-5---5-4-5------4-5---5-4-5--- 
       A|------------------3~-3-------------2~-2-------------0~-0--------------- 
       E|----------------------------------------------------------------------- 

       Ending  
       e|----------------------------------------------------------------------- 
       B|----------------------------------------------------------------------- 
       G|----------------------------------------------------------------------- 
       D|--9-9-9--9--7--9------------------------------------------------------- 
       A|--7-7-7--7--5--7------------------------------------------------------- 
       E|----------------------------------------------------------------------- 
	  

Search Paypal
auto scroll beats size up size down change color hide chords drawings
tab show chords e-chords YouTube Clip e-chords hide all tabs e-chords go to top tab