Iron Maiden

home > Iron Maiden

Public Enema Number One Tab

Iron Maiden

Difficulty: nolevelnolevel

tuner correct add songbook print version text version save to e-mail
chordsukulelecavacokeyboardtabbassdrumsharmonicsflute Guitar Pro
chords

Public Enema Number One

Year: 1990 - Album: No Prayer for the Dying

  		 
Here is the intro for this song: 
 
Guitar I: ( Janick ) 
e |----------------------------------------------------------------| 
B |-------------------12----13---12---------13---15^---------------| 
G |-----12---14----------------------------------------------------| 
D |----------------------------------------------------------------| 
A |----------------------------------------------------------------| 
E |----------------------------------------------------------------| 
 
e |----------------------------------------------------------------| 
B |---17----15---13----15^-----------------------------------------| 
G |-------------------------------12----12^^-----------------------| 
D |----------------------------------------------------------------| 
A |----------------------------------------------------------------| 
E |----------------------------------------------------------------| 
 
e |----------------------------------------------------------------| 
B |-------------------12----13---12---------13---15^---------------| 
G |-----12---14----------------------------------------------------| 
D |----------------------------------------------------------------| 
A |----------------------------------------------------------------| 
E |----------------------------------------------------------------| 
 
e |----------------------------------------------------------------| 
B |---17----15---13----15^-----------------------------------------| 
G |----------------------------------------------------------------| 
D |----------------------------------------------------------------| 
A |----------------------------------------------------------------| 
E |----------------------------------------------------------------| 
 
e |----------------------------------------------------------------| 
B |-------------------12----13---12---------13---15^---------------| 
G |-----12---14----------------------------------------------------| 
D |----------------------------------------------------------------| 
A |----------------------------------------------------------------| 
E |----------------------------------------------------------------| 
 
e |----------------------------------------------------------------| 
B |---17----15---13----15^-----------------------------------------| 
G |---------------------------------12---12^^----------------------| 
D |----------------------------------------------------------------| 
A |----------------------------------------------------------------| 
E |----------------------------------------------------------------| 
 
e |----------------------------------------------------------------| 
B |-------------------12----13---12---------13---15^---------------| 
G |-----12---14----------------------------------------------------| 
D |----------------------------------------------------------------| 
A |----------------------------------------------------------------| 
E |----------------------------------------------------------------| 
 
e |----------------------------------------------------------------| 
B |---13----12-----------------------------------------------------| 
G |-----------------------14---12^^---14----12-----11^^------------| 
D |----------------------------------------------------------------| 
A |----------------------------------------------------------------| 
E |----------------------------------------------------------------| 
 
Guitar II: ( Dave ) 
e |----------------------------------------------------------------| 
B |-------------------8----10---8---------10---12^-----------------| 
G |-----9---11-----------------------------------------------------| 
D |----------------------------------------------------------------| 
A |----------------------------------------------------------------| 
E |----------------------------------------------------------------| 
 
e |----------------------------------------------------------------| 
B |---13----12---10----12^-----------------------------------------| 
G |-------------------------------9----9^^-------------------------| 
D |----------------------------------------------------------------| 
A |----------------------------------------------------------------| 
E |----------------------------------------------------------------| 
 
e |----------------------------------------------------------------| 
B |-------------------8----10---8---------10---12^-----------------| 
G |-----9---11-----------------------------------------------------| 
D |----------------------------------------------------------------| 
A |----------------------------------------------------------------| 
E |----------------------------------------------------------------| 
 
e |----------------------------------------------------------------| 
B |---13----12---11----12^^----------------------------------------| 
G |----------------------------------------------------------------| 
D |----------------------------------------------------------------| 
A |----------------------------------------------------------------| 
E |----------------------------------------------------------------| 
 
e |----------------------------------------------------------------| 
B |-------------------8----10---8---------10---12^-----------------| 
G |-----9---11-----------------------------------------------------| 
D |----------------------------------------------------------------| 
A |----------------------------------------------------------------| 
E |----------------------------------------------------------------| 
 
e |----------------------------------------------------------------| 
B |---13----12---10----12^-----------------------------------------| 
G |-------------------------------9----9^^-------------------------| 
D |----------------------------------------------------------------| 
A |----------------------------------------------------------------| 
E |----------------------------------------------------------------| 
 
e |----------------------------------------------------------------| 
B |-------------------8----10---8---------10---12^-----------------| 
G |-----9---11-----------------------------------------------------| 
D |----------------------------------------------------------------| 
A |----------------------------------------------------------------| 
E |----------------------------------------------------------------| 
 
e |----------------------------------------------------------------| 
B |---10-----------------------------------------------------------| 
G |------------12---11---9^^-----11-----9------7^^-----------------| 
D |----------------------------------------------------------------| 
A |----------------------------------------------------------------| 
E |----------------------------------------------------------------| 
 
 
 
_______________________________________________________ 
Contribuição: Fernando Mantovanele([email protected]) 

	  

Search Paypal
auto scroll beats size up size down change color hide chords drawings
tab show chords e-chords YouTube Clip e-chords hide all tabs e-chords go to top tab