Iron Maiden

home > Iron Maiden

Infinite Dreams Bass Tab

Iron Maiden

Difficulty: EasyEasy

by meta11eir0

tuner correct add songbook print version text version save to e-mail
chordsukulelecavacokeyboardtabbassdrummharmonicsflute Guitar Pro
chords

Infinite Dreams

Year: 1988 - Album: Edward the Great: Greatest Hits

  		Iron Maiden 
Infinite Dreams 
 
Toque todos os riffs na sequencia que aparecem 
 
|-------9-----------5-----------7-----------5-------| 
|---7-9---9-7---3-5---5-3---5-7---7-5---3-5---5-3-5-| X4 
|-7-----------3-----------5-----------3-------------| 
|---------------------------------------------------| 
						 
|---------------5-----7-9-7------------------5-------7-----9-------------------5- 
|-------------5-----7-------9-------------5---5---7-----9-------------------5--- 
|---5-7-5-7-3-----5--------------5-7-5-7-3-------5-----7-----7-7---5-7-5-7-3----- 
|-0----------------------------0---------------------------------0--------------- 
(durante esse riff, o vocal entra) 
 
----7-9-7-----------------10-12----10-12----12-14----12-14-16-14-12-| 
--7-------9-----------10-------10-------12-------12-----------------|  X6 
5--------------5-7-5-7-----------------------------------------------| 
-------------0-------------------------------------------------------|	                          
 
|-------9-------5--------7-------11-12-11-------| 
|-----9-------5--------7---12-14----------14-12-| X4 
|-7-7-----3-3-----5-55--------------------------| 
|-----------------------------------------------| 
 			                     								   
|---------9---------------5---------------7---------------7------------| 
|---9-7-9---9-7-9---5-3-5---5-3-5---7-5-7---7-5-7---7-5-7---7-5-7--5~--| 
|-7---------------3---------------5---------------5--------------------| 
|----------------------------------------------------------------------| 
 
|---------------------------------------------------------------------------------- 
|---------------------------------------------------------------------------------- 
|-7-777-77-3-333-33-5-555-55-0-5-5-5-5--5-5-5-5-7-777-77-3-333-33-5-5-5-5-5-5-5-5-5 
|---------------------------------------------------------------------------------- 
 
----------------------------------------------------------------------------------- 
----------------------------------------------------------------------------------- 
-7-777-77-3-333-33-5-555-55-0-5-5-5-5--5-5-5-5-7-777-77-3-333-33-55555555555555555- 
----------------------------------------------------------------------------------- 
 
|---------------------------------------------------------------------------------| 
|-----------------------------------4h5-4h5-4-------------------------------------| X2 
|7-7-7-7-7-7-3-3-3-3-3-3-5-5-5-5-5-5---------5-7-7-7-7-7-7-3-3-3-3-3-3-5-5-0-0-5-5| 
|---------------------------------------------------------------------------------| 
										
|---------------------------------------------------------------------| 
|-------------------------------------------------------9-9-9-9-10-12-| X2 
|-10-10-10-10-10-10-10-10-10-10-10-10-10-10-10-10-10-10---------------| 
|---------------------------------------------------------------------|
 
|---------------------------------------------------------------------| 
|---------------------------------------------------------------------| X2 
|-7-7-7-7-7-5-5-5-5-5-----------3-5-7-7-7-7-7-5-5-5-5-5-.-.-----.-.-.-| 
|---------------------3-3-3-3-3-------------------------3-3-3-3-3-3-3-| 
					                               
|---------------------------------------------------------------------| 
|-------------------------------------------------------9-9-9-9-10-12-| X2 
|-10-10-10-10-10-10-10-10-10-10-10-10-10-10-10-10-10-10---------------| 
|---------------------------------------------------------------------| 
										 
|---------------------------------------| 
|-3-3-3-3-3-----------------------------| X4 
|-----------3-3-3-3-3-------------------| 
|---------------------3-3-3-3-3-3-3-3-3-| 
				  
|-------------------------------------------------------------| 
|-2-222-222-2-2-2---------------------------------------------| X2 
|-----------------3-333-333-3-3-3-5-555-555-5-5-5-2-222-3-333-| 
|-------------------------------------------------------------| 
								     
|--------------------------------------------------------------------------------- 
|--------------------------------------------------------------------------------- 
|-9-9-9-9-9-9-9-9-9-9-9-9-9-9-9-9-9-9-9-9-5-5-5-5-5-7-7-7-7-7-9-9-9-9-9-7-7-7-7-7- 
|--------------------------------------------------------------------------------- 
  "Help me! help me to find my true self without seeing the future..." 
 
---------------------------------------------------------------| 
---------------------------------------------------------------| 
9-9-9-9-9-9-9-9-9-9-9-9-9-9-9-9-9-9-9-9-5-5-5-5-5-7-7-7-7-7-9-| 
---------------------------------------------------------------| 
 
|---------------------------------------------------------| 
|---------------------------------------------------------| X4 (nao tenho certeza) 
|---------------------------------------------------------| 
|-0-00-000-00-000-00-000-00-3-0-00-000-00-000-00-000-00-5-| 
 
|-------------------------------------------------------------| 
|-2-222-222-2-2-2---------------------------------------------| 
|-----------------3-333-333-3-3-3-5-555-555-5-5-5-2-222-3-333-| 
|-------------------------------------------------------------| 
 
|---------------------------------------------------------------------| 
|-2-222-222-2-2-2-----------------------------------------------------| 
|-----------------3-333-333-3-3-3-5-555-555-5-5-5-2---2---3-2-3-5-3-5-| 
|---------------------------------------------------2---2-------------| 
								     
|-------9-------5--------7-------11-12-11-------| 
|-----9-------5--------7---12-14----------14-12-| X4 (nao tenho certeza) 
|-7-7-----3-3-----5-55--------------------------| 
|-----------------------------------------------| 
     
|----------12-------8----------10-------14-15-14-------9-| 
|-------12--------8---------10----15-17----------17-15-9-| 
|-10-10-------6-6-----8-8-8----------------------------7-| 
|--------------------------------------------------------| 
 
 
 isso. 
	  

Search Paypal
auto scroll beats size up size down change color hide chords drawings
tab show chords e-chords YouTube Clip e-chords hide all tabs e-chords go to top tab