Iron Maiden

home > Iron Maiden

Sign Of The Cross (Live) Tab

Iron Maiden

Difficulty: ExpertExpert

tuner correct add songbook print version text version save to e-mail
chordsukulelecavacokeyboardtabbassdrumsharmonicsflute Guitar Pro
chords

Sign Of The Cross (Live)

Year: 2001 -

(Steve Harris)

  		  
font >INTRO:  
  
      00:00 - 01:20 = PR…-INTRODUCTION (BACKGROUND CHANTING)  
  
      01:20 - 01:55 = INTRO - GUITAR 1  
  
    E---------------------------------------------------------------------------------------  
    B---------------------------------------------------------------------------------------  
    G-------------------------------------7-------------------------------------------------  
    D---7-9-10-9--7-9-10-9---7-9-10--9-10---10-9----7-9-10-9--7-9-10-9----------------------  
    A---------------------------------------------------------------------7-9-10-9-10-9-10--  
    E---------------------------------------------------------------------------------------  
  
  
    E---------------------------------------------------------------------------------------  
    B---------------------------------------------------------------------------------------  
    G-------------------------------------7-------------------------------------------------  
    D---7-9-10-9--7-9-10-9---7-9-10--9-10---10-9----7-9-10-9--7-9-10-9----------------------  
    A---------------------------------------------------------------------7-9-10-9-10-9-7---  
    E---------------------------------------------------------------------------------------  
  
  
      01:55 - 02:47 = INTRO 2 - HARMONIC CHORDS  
  
                             C9          D9             X3  
    E-----0------0------0----3-----------5---------------  
    B-----0------0------0------3-----------5-------------  
    G-----0------0------0--------5-----------7-----------  
    D-----0------0------0----------5-----------7---------  
    A--------------------------------3-----------5-------  
    E----------------------------------------------------  
  
  
      02:47 - 03:26 = VERSE 1  
  
    E-----------------------------------------------------------------------------  
    B-----------------------------------------------------------------------------  
    G-----------------------------------7-----------------------------------7-----  
    D-------9----9----9----9----9----7--7---------9----9----9----9----9--7--7-----  
    A--7--777--777--777--777--777----5-------7--777--777--777--777--777--5--------  
    E--0-------------------------------------0------------------------------------  
  
  
    E--------------------------------------------------------------------------------------  
    B--------------------------------------------------------------------------------------  
    G--------------------------------------------------------------------------------------  
    D-------4--------5--------7--------9---------4--------5--------7--------9----9------7--  
    A--2--222---3--333---5--555---7--777----2--222---3--333---5--555---7--777----7------5--  
    E--0--------0--------0--------0---------0--------0--------0--------0------------00-----  
  
  
    E-----------------------------------------------------------------------------  
    B-----------------------------------------------------------------------------  
    G-----------------------------------7-----------------------------------7-----  
    D-------9----9----9----9----9----7--7---------9----9----9----9----9--7--7-----  
    A--7--777--777--777--777--777----5-------7--777--777--777--777--777--5--------  
    E--0-------------------------------------0------------------------------------  
  
  
    E--------------------------------------------------------------------------------------  
    B--------------------------------------------------------------------------------------  
    G--------------------------------------------------------------------------------------  
    D-------4--------5--------7--------9---------4--------5--------7--------9----9------7--  
    A--2--222---3--333---5--555---7--777----2--222---3--333---5--555---7--777----7------5--  
    E--0--------0--------0--------0---------0--------0--------0--------0------------00-----  
  
  
    E--------------------------------------------------------------------------------  
    B-----------------------------------------5--5-7-8-7-----0---5--5-7-8-7----------  
    G-----------------------------------------------------7^-----------------7^------  
    D--9----9----9----9----9----9----9----9------------------------------------------  
    A--7--777--777--777--777--777--777--777------------------------------------------  
    E--------------------------------------------------------------------------------  
  
  
    E--------------------------------------------------------------------------------  
    B--------------------------------------------5--5-7-8-7-----0---5--5-7-8-7-------  
    G--------------------------------------------------------7^-----------------7^---  
    D--5----5----5----5----5----5----5----5--7---------------------------------------  
    A--3--333--333--333--333--333--333--333--5---------------------------------------  
    E--------------------------------------------------------------------------------  
  
  
      03:44 - 04:04 = CHORUS (CHORDS)  
  
    E-----------------------------------------------------------------------------  
    B-----------------------------------------------------------------------------  
    G-----------------------------------------------------------------------------  
    D--5-------7-------5-------------9----9----9----9----9----9----9--9-----------  
    A--3---5---5---7---3---5----7--777--777--777--777--777--777--777-77-----------  
    E------3-------5-------3----0-------------------------------------------------  
  
                                                                                X2  
    E----------------------------------------------------------------------------  
    B----------------------------------------------------------------------------  
    G----------------------------------------------------------------------------  
    D----9-9-9-7-9-9-9-----9-9-9-7-9-9-9-----9-9-9-7-9-9-9-10-10-9-9-7-7-9-9-----  
    A--7-----------------7-----------------7-------------------------------------  
    E----------------------------------------------------------------------------  
  
                                                                                X2  
    E----------------------------------------------------------------------------  
    B----------------------------------------------------------------------------  
    G----------------------------------------------------------------------------  
    D----7-7-7-5-7-7-7-----7-7-7-5-7--7-----7-7-7-5-7-7-7-8-8-7-7-5-5-7-7--------  
    A--5-----------------5----------------5--------------------------------------  
    E----------------------------------------------------------------------------  
  
  
    E---0-----------------  
    B----0----------------  
    G-----0---------------  
    D------0--------------  
    A---------------------  
    E---------------------  
  
  
      05:30 - 06:06 = BACKGROUND CHANTING  
  
                                                            X2  
    E--------------------------------------------------------  
    B--------------------------------------------------------  
    G--------------------------------------------------------  
    D--9--9-8-----9--9--8-7-----7--7-6-----7--7--6-5---------  
    A-7--7-------7--7--7-------5--5-------5--5--5------------  
    E--------------------------------------------------------  
  
  
      06:06 - 07:08 =  
  
  
    E------------------------------------------------------------------------------------  
    B------------------------------------------------------------------------------------  
    G------------------------------------------------------------------------------------  
    D---9-9-9-8-------------9-9-9-8---7----------------------9-9-9-8---------------------  
    A--7-----7----7---7----7-----7--7-----7---7---7---7-----7-----7----7---7-------------  
    E-----------000-000-00--------------000-000-000-000-00-----------000-000-00----------  
  
  
    E------------------------------------------------------------------------------------------  
    B------------------------------------------------------------------------------------------  
    G------------------------------------------------------------------------------------------  
    D----9-9-9-8---7-----------------------7-7-7-6-------------7-7-7-6---5---------------------  
    A--7------7--7-----7---7---7---7------5-----5----5---5----5-----5--5-----5---5---5---5-----  
    E----------------000-000-000-000-00------------000-000-00--------------000-000-000-000-00--  
  
  
      07:08 - 07:25 = RIFF 5  
  
    E-------------------------------------------------------------------------------  
    B-------------------------------------------------------------------------------  
    G-------------------------------------------------------------------------------  
    D---9-----10-----7-----9----7-----8-----5-----7--------7-----8-----5-----7------  
    A--7-7-7-7--7-7-7-7-7-7-7--5-5-5-5-5-5-5-5-5-5-5-8-7--5-5-5-5-5-5-5-5-5-5-5-5---  
    E-------------------------------------------------------------------------------  
  
  
      07:25 - 07:44 = RIFF 5 WITH LEAD 2  
  
    E---------------10-----------------------------------10-------------------  
    B--12--10-12-13----13-10----10-12-------12--10-12-13----13-10----10-12----  
    G------------------------12-----------------------------------12----------  
    D-------------------------------------------------------------------------  
    A-------------------------------------------------------------------------  
    E-------------------------------------------------------------------------  
  
  
    E--------------8-------------------------------8-----------------  
    B--10--8-10-11---11-8----8-10------10--8-10-11---11-8----8-10----  
    G---------------------10------------------------------10---------  
    D----------------------------------------------------------------  
    A----------------------------------------------------------------  
    E----------------------------------------------------------------  
  
  
      07:44 - 07:57 = RIFF 6 - HEAVY AND FAST  
  
  
      GUITAR: 1  
                                                                           X2  
    E-----------------------------------------------------------------------  
    B-----------------------------------------------------------------------  
    G-----------------------------------------------------------------------  
    D----------------------------------------------------------7------------  
    A--10-10-10-9-7---10-10-10-9-7---10-10-10-9-7---7-7-7-7-10---10-9-7-10--  
    E-----------------------------------------------------------------------  
  
  
      GUITAR: 2 AND 3  
                                                                           X2  
    E-----------------------------------------------------------------------  
    B-----------------------------------------------------------------------  
    G-----------------------------------------------------------------------  
    D-----------------------------------------------------------------------  
    A------------------------------------------------0----------------------  
    E--3-3-3-2-0---3-3-3-2-0---3-3-3-2-0---0-0-0-0-3---3-2-0-3--------------  
  
  
      07:57 - 08:17 =  
                                                                                      X2  
    E----7-7-5-------7-7-5---------------------7-7-5-------7-7-5-----------------------  
    B--5-------8-7-5-------8-7-5----8---7---5--------8-7-5-------8-7-5----8---7---5----  
    G-----------------------------7---7---7-----------------------------7---7---7------  
    D----------------------------------------------------------------------------------  
    A----------------------------------------------------------------------------------  
    E----------------------------------------------------------------------------------  
  
  
      08:17 - 08:36 = SOLO 1 (JANICK GERS)  
  
      08:36 - 08:55 = SOLO 2 (DAVE MURRAY)  
  
  
      08:55 - 09:14  
                                                                                      X2  
    E----7-7-5-------7-7-5---------------------7-7-5-------7-7-5-----------------------  
    B--5-------8-7-5-------8-7-5----8---7---5--------8-7-5-------8-7-5----8---7---5----  
    G-----------------------------7---7---7-----------------------------7---7---7------  
    D----------------------------------------------------------------------------------  
    A----------------------------------------------------------------------------------  
    E----------------------------------------------------------------------------------  
  
  
      09:14 - 10:10  
                                                                                           X6  
    E--------------------------------------------------------------------------10-9---------  
    B-----10-12-12--12-12--12-13-12-10-12---------10-12-12--12-12--12-13-12-10------12-10---  
    G--9----------------------------------------9-------------------------------------------  
    D---------------------------------------------------------------------------------------  
    A---------------------------------------------------------------------------------------  
    E---------------------------------------------------------------------------------------  
  
                                                                                            X6  
    E-----------------------------------------10-9-------------------------------------------  
    B-----10-12-12--12-12--12-13-12-10-12----------12-10-12-10-------------------------------  
    G--9-------------------------------------------------------12-11-12-11-9----12-11-9------  
    D------------------------------------------------------------------------12---------12---  
    A----------------------------------------------------------------------------------------  
    E----------------------------------------------------------------------------------------  
  
  
      10:10 - 10:47 = SLOW AND CRUNCHY  
  
    E------------------------------------------------------------------------------------------  
    B----------------------6-5-------------------8-7--------3-2--------6-5---------------------  
    G--------------------5----5-------5-4------7----7-----2----2-----5----5-------5-4----------  
    D--2--5-----7-------5-5---------5----5----7-7--------2-2--------5-5---------5----5---------  
    A--2--3--5--5--7---3-----------5-5-------5----------0----------3-----------5-5-------7-----  
    E--0-----3-----5--------------3-------------------------------------------3------------0---  
  
  
      10:47 - 11:12 = INTRO 1 WITH ENDING 2  
  
  
    E-----------------------------------------------------------------------------------------  
    B-----------------------------------------------------------------------------------------  
    G-------------------------------------7---------------------------------------------------  
    D---7-9-10-9--7-9-10-9---7-9-10--9-10---10-9----7-9-10-9--7-9-10-9------------------------  
    A---------------------------------------------------------------------7-9-10-9-10-9-7-----  
    E--------------------------------------------------------------------------------------0--  
  
  
_______________________________________________________  
ContribuiÁ„o: Danilo Munhůz([email protected])  


	  

Full key step upFull key step up
Half key step upHalf key step up
Half key step downHalf key step down
Full key step downFull key step down
Search Paypal
auto scroll beats size up size down change color hide chords drawings
tab show chords e-chords YouTube Clip e-chords hide all tabs e-chords go to top tab