Iron Maiden

home > Iron Maiden

Paschendale (ver. 2) Tab

Iron Maiden

Difficulty: nolevelnolevel

tuner correct add songbook print version text version save to e-mail
chordsukulelecavacokeyboardtabbassdrumsharmonicsflute Guitar Pro
chords

Paschendale (ver. 2)

  		 

Tabber: John DuBois  
9/19/03 
 
clean: 
--10p-0-0-8p-0-0-7p-0-0-0-5p-0-0-0-12------------------------------------- 
-------------------------------------------------------------------------- 
-------------------------------------------------------------------------- 
-------------------------------------------------------------------------- 
-------------------------------------------------------------------------- 
-------------------------------------------------------------------------- 
 
Distortion:  
 
----------------------------------------------------------------------------------------------------- 
------------------------------------------------------------------------------------------------------ 
------------------------------------------------------------------------------------------------------ 
-14-14-14--12-12--10-10-10--9-9-9--7--12-12-12--10-10-10--9-9-9--7-7-7--2----------------------------- 
-14-14-14--12-12--10-10-10--9-9-9--7--12-12-12--10-10-10--9-9-9--7-7-7--2----------------------------- 
-12-12-12--10-10--8--8--8---7-7-7--5--10-10-10--8--8--8---7-7-7--5-5-5--0----------------------------- 
 
Verse 
 
---------------------------------------------------------- 
---------------------------------------------------------- 
---------------------------------------------------------- 
--9-9-9-9-9-9--7--9--7--5---9-9-9-9-9-9--7--5------------- 
--7-7-7-7-7-7--5--7--5--3---7-7-7-7-7-7--5--5------------- 
--------------------------------------------3------------- 
 
-------------------- 
-------------------- 
-------------------- 
--7--5---------------- 
--5--5--2-------------- 
-----3--0------------- 
 
Bridge 
-------------------------------------------------------------- 
-------------------------------------------------------------- 
-------------------------------------------------------------- 
--4-4--5-5--7-7--9-9-----4-4-5-5--7-7--9-9-------------------- 
--2-2--3-3--5-5--7-7-----2-2-3-3--5-5--7-7-------------------- 
-------------------------------------------------------------- 
 
 
-------------------------------------------------------------- 
-------------------------------------------------------------- 
---7-9-4---7-9-5---7-9-11-9-7-5-4----------------------------- 
-9-------9-------7-------------------------------------------- 
-------------------------------------------------------------- 
-------------------------------------------------------------- 
 
-------------------------------------------------------------- 
-------------------------------------------------------------- 
------------------------------------9------------------------- 
---------7-9-7-10-7-9-7-9-7---------9------------------------- 
-7-9-10--------------------10-9-7-9-7------------------------- 
-------------------------------------------------------------- 
 
 
Except for the solo thats about it 
 

	  

Search Paypal
auto scroll beats size up size down change color hide chords drawings
tab show chords e-chords YouTube Clip e-chords hide all tabs e-chords go to top tab