Iron Maiden

home > Iron Maiden

Look For The Truth (ver. 2) Tab

Iron Maiden

Difficulty: nolevelnolevel

by wickedman

tuner correct add songbook print version text version save to e-mail
chordsukulelecavacokeyboardtabbassdrumsharmonicsflute Guitar Pro
chords

Look For The Truth (ver. 2)

  		 Introdução  
  
  Em                                                G                 D                 Gmaj7/B  
|---------------------------------|-------------------------3-------|-------3p2---------------------------|  
|---------------------------------|---------------------------3-----|-----3-----3---------------3---------|  
|---------0---------------0-------|---------0-------------0-----0---|---2---------2---------0-------0-----|  
|-----2-------2-------2-------2---|-----2-------2-------0---------0-|-0--------------0----4---4---4---x---|  
|---2---2---2---2---2---2---2---2-|---2---2---2---0---2-------------|-------------------2-----------------|  
|-0---------------0---------------|-0---------------3---------------|-------------------------------------|  
  
  
  Cmaj7              D5                E5                                  Em              G  
|------------------------------------|---------0-------------------------|---------0---------------3-------|  
|---------0------------------0-------|-----------0-------------0---------|-----------0---------------3-----|  
|-----5-------5----------7-------7---|-----9-------9-------9-------9-----|-------0---------------0-----0---|  
|---5---5---5----------7---7---7---0-|---9---9-------9---9---9---9-------|-----2-------2-0-----0---------0-|  
|-3--------------3s==5---------------|-7---------------7-----------------|---2---------------2-------------|  
|------------------------------------|-----------------------------------|-0---------------3---------------|  
  
  
  D                 Gmaj7/B           Cmaj7           D6                  E  
|-------3p2-------------------------|---------0----------------0--------|---------0-----------------------|  
|-----3-----3---------------3-------|-------0---0-----------0-----0-----|-----------0-------------0-------|  
|---2---------2---------0-------0---|-----5-------5-------7---------7---|-----9-------9-------9-------9---|  
|-0-------------------4---4---4---x-|---x-----------5---7-------------x-|---9---9-------9---9---9---9---0-|  
|-------------------2---------------|-3---------------5-----------------|-7---------------7---------------|  
|-----------------------------------|-----------------------------------|---------------------------------|  
  
  
Riff 1  
  
    E5              G5                D5                B5                C5                 D5  
||--------------------------3-------|-------3p2-------------------------|---------------------------------------|  
||o---------------------------3-----|-----3-----3---------------3-------|---------0------------------0----------|  
||----------0-------------0-----0---|---2---------2---------0-------0---|-----5-------5----------7-------7------|  
||------2-------2-------0---------0-|-0--------------0----4---4---4---x-|---5---5---5----------7---7---7---0----|  
||o---2---2---2---0---2-------------|-------------------2---------------|-3--------------3s==5------------------|  
||--0---------------3---------------|-----------------------------------|---------------------------------------|  
  
  
  E5                                  E5              G5                D5                B5  
|---------0-------------------------|---------0---------------3-------|-------3p2-------------------------|  
|-----------0-------------0---------|-----------0---------------3-----|-----3-----3---------------3-------|  
|-----9-------9-------9-------9-----|-------0---------------0-----0---|---2---------2---------0-------0---|  
|---9---9-------9---9---9---9-------|-----2-------2-0-----0---------0-|-0-------------------4---4---4---x-|  
|-7---------------7-----------------|---2---------------2-------------|-------------------2---------------|  
|-----------------------------------|-0---------------3---------------|-----------------------------------|  
  
  
 1.  
  C5              D5                   E5  
|---------0---------------0----------|---------0------------------------||  
|-------0---0-----------0---0--------|-----------0-------------0-------o||  
|-----5-------5-------7-------7------|-----9-------9-------9-------9----||  
|---x-----------5---7-----------x----|---9---9-------9---9---9---9---0--||  
|-3---------------5------------------|-7---------------7---------------o||  
|------------------------------------|----------------------------------||  
  
  
 2.  
  C5              D5                   E5  
|---------0----------------0---------|---------------------------------||  
|-----------0----------------0-------|---------------------------------||  
|-----5-------5--------7-------7-----|---------------------------------||  
|---5---5-------5----7---7-------x---|-9-9-9-9-9-9-9-9-2-2-2-2-2-2-2-2-||  
|-3---------------/5-----------------|-7-7-7-7-7-7-7-7-2-2-2-2-2-2-2-2-||  
|------------------------------------|-----------------0-0-0-0-0-0-0-0-||  
  
  
Versos 1 e 2: sobre Riff 1  
  
E5       G5         D5 B5 C5  
  All my dark dreams  
            D5          E5  
Drift like smoke in the breeze  
         G5      D5 B5 C5  
The fear grips me        as  
  D5               E5  
I fall towards my sleep  
  
               G5       D5 B5 C5 D5  
Here comes the nightmare  
           E5  
that never ends  
            G5   D5 B5 C5  
Here is the dream  
           D5          E5  
that makes monsters of men  
  
  
    E5       G5 D          Bm       D  E5  
                                              (4x)  
||--0--0--0--3--2---2--x-|----------2--0---0---||  
||o-0--0--0--3--3---3--x-|-3--3--3--3--0---0--o||  
||--x--x--x--0--2---2--x-|-4--4--4--2--x---x---||  Nota: os vocais são feitos apenas  
||--2--2--2--0--0---0--x-|-4--4--4--0--2---2---||  nos dois primeiros tempos. (Ouça a música)  
||o-2--2--2--x-----------|-2--2--2-----2---2--o||  
||--0--0--0--3-----------|-------------0---0---||  
    Oh_oh_oh_oh Oh__oh     Oh_oh_oh_oh Oh__oh    
  
  
Riff 2  
  
      E5         C5           D5       B5   C5     E5         C5           D5         B5    A5 G5    
||------------------------|----------------------|-----------------------|------------------------||  
||o-----------------------|----------------------|-----------------------|-----------------------o||  
||--7h9-9-9-9--3h5-5-5-5--|-5h7-7-7-7--4-4--5-5--|-7h9-9-9-9--3h5-5-5-5--|-5h7-7-7-7--4-4---------||  
||--7h9-9-9-9--3h5-5-5-5--|-5h7-7-7-7--4-4--5-5--|-7h9-9-9-9--3h5-5-5-5--|-5h7-7-7-7--4-4---2--0--||  
||o-7-7-7-7-7--3-3-3-3-3--|-5-5-5-5-5--2-2--3-3--|-7-7-7-7-7--3-3-3-3-3--|-5-5-5-5-5--2-2---0--x-o||  
||------------------------|----------------------|-----------------------|---------------------3--||  
  
  
Versos 3 e 4: sobre Riff 2  
  
  
E5             C5  
  In the house of my soul  
D5            B5  C5       E5  
  In rooms of ugliness and cold  
         C5  
Memories locked away  
D5                 B5      A5  G5  
All the doubts and fears I ne__ver faced  
  
E5         C5  
  Now they come again  
D5           B5      C5        E5  
I am falling down to meet with them  
        C5  
Fear within us all  
D5         B5        A5   G5  
Mine awake and they stand up tall  
  
  
Riff 3  
  
  E5      D5 C5         G5           D5         E5      D5 C5         G5       D5  
|--------------------|-----------------------|--------------------|---------------------||  
|--------------------|-----------------------|--------------------|---------------------||  
|-9-9-9-9-7-5-5-5-5--|-12-12-12-12--7-7-7-7--|-9-9-9-9-7-5-5-5-5--|----------7-7-7-7-7--||  
|-9-9-9-9-7-5-5-5-5--|-12-12-12-12--7-7-7-7--|-9-9-9-9-7-5-5-5-5--|-5-5-5-5--7-7-7-7-7--||  
|-7-7-7-7-5-3-3-3-3--|-10-10-10-10--5-5-5-5--|-7-7-7-7-5-3-3-3-3--|-5-5-5-5--5-5-5-5-5--||  
|--------------------|-----------------------|--------------------|-3-3-3-3-------------||  
  
  
Refrão: sobre Riff 3  
  
E5     D5      C5  
  Look for the truth  
G5               D5  
  Deepest cut of all from you  
E5      D5     C5  
  Knife of the truth  
G5                 D5  
  Blade of hatred slicing through  
  
  
    E5       G5 D          Bm       D  E5  
||--0--0--0--3--2---2--x-|----------2--0---0---||  
||o-0--0--0--3--3---3--x-|-3--3--3--3--0---0--o||  
||--x--x--x--0--2---2--x-|-4--4--4--2--x---x---||  
||--2--2--2--0--0---0--x-|-4--4--4--0--2---2---||  
||o-2--2--2--x-----------|-2--2--2-----2---2--o||  
||--0--0--0--3-----------|-------------0---0---||  
    Oh_oh_oh_oh Oh__oh     Oh_oh_oh_oh Oh__oh    
  
  
Versos 5 e 6: sobre o Riff 2  
  
E5           C5  
  I pray my sleep will break  
D5      B5        C5      E5  
  Maybe this time I won't wake  
           C5  
Weakness I hide so well  
D5            B5    A5   G5   E5  
  This dagger in my mind will tell  
  
        C5  
It's my final stand  
D5         B5       C5      E5  
  I make a fist out of each hand  
               C5  
To the shadows of the past  
D5            B5     A5    G5  
Take a breath and I scream attack  
  
  
Refrão: sobre Riff 3  
  
E5     D5      C5  
  Look for the truth  
G5               D5  
  Deepest cut of all from you  
E5      D5     C5  
  Knife of the truth  
G5                 D5  
  Blade of hatred slicing through  
  
E5     D5     C5  
  Here is the truth  
G5               D5  
  Deepest cut of all from you  
E5      D5     C5  
  Knife of the truth  
G5                 D5  
  Blade of hatred slicing through  
  
  
    E5       G5 D          Bm       D  E5  
||--0--0--0--3--2---2--x-|----------2--0---0---||  
||o-0--0--0--3--3---3--x-|-3--3--3--3--0---0--o||  
||--x--x--x--0--2---2--x-|-4--4--4--2--x---x---||  
||--2--2--2--0--0---0--x-|-4--4--4--0--2---2---||  
||o-2--2--2--x-----------|-2--2--2-----2---2--o||  
||--0--0--0--3-----------|-------------0---0---||  
    Oh_oh_oh_oh Oh__oh     Oh_oh_oh_oh Oh__oh Yeah!  
  
  
 Interlúdio  
  
  A5             D5          G5    A5                                     D5        G5        A5  
|--------------------------|-----------------------------|------------------------|-------------------------------|  
|----------12-13-15--15-13-|-12----13-12-----------------|----------12-13-15---13-|-12--------13-12---------------|  
|-14-12-14-----------------|-------------14-12-14-----12-|-14-12-14---------------|-----------------14-x-14----12-|  
|--------------------------|-----------------------14----|------------------------|-----(14)----------------14----|  
|--------------------------|-----------------------------|------------------------|-------------------------------|  
|--------------------------|-----------------------------|------------------------|-------------------------------|  
  
  
                 D5        G5    A5                                     D5        G5  
|------------------------|-----------------------------|------------------------|--------------------------|  
|----------12-13-15---13-|-12----13-12-----------------|----------12-13-15---13-|-12----13-12-----12-------|  
|-14-12-14---------------|-------------14-12-14-----12-|-14-12-14---------------|-------------14-----14-12-|  
|------------------------|-----------------------14----|------------------------|--------------------------|  
|------------------------|-----------------------------|------------------------|--------------------------|  
|------------------------|-----------------------------|------------------------|--------------------------|  
  
  
Riff 4  
  
  E5       G5                     D5    C5  N.C.              E5         G5                D5         C5      D5  
|-------------------------------|---------------------------|---------------------------|----------------------------|  
|-------------------------------|---------------------------|---------------------------|----------------------------|  
|-9--9-----12-12-x-12-12-(12)S==|=7--7s=5-------------------|-9--9---9-x-12--x-12\--x-x-|--7---7-x-x--5--5----7--7---|  
|-9--9-----12-12-x-12-12-(12)S==|=7--7s=5-------------------|-9--9---9-x-12--x-12\--x-x-|--7---7-x-x--5--5----7--7---|  
|-7--7-----10-10-x-10-10-(10)S==|=5--5s=3---3-2-------------|-7--7---7-x-10--x-10\--x-x-|--5---5-x-x--3--3----5--5---|  
|-------------------------------|---------------5-3-5-3-2-0-|---------------------------|----------------------------|  
  
  
Solo: Janick Gers  
Esse é um solo muito curto, quase um 'bridge', e também é fácil. Faça sobre o Riff 4.  
  
  E5        G5                       D5    C5                        E5        G5                      D5        C5        D5  
|-------------------------------|----------12---(12)s10----8---7---|-7s8s7---------------------------|-----------------------------7s==|  
|------------8s===7----8--10----|-10s12----------------------------|-------7---8s===7----(7)---------|---------------------------------|  
|-(5)s9-------------------------|----------------------------------|-------------------------7---7---|--7s9------12s===11--14s===9-----|  
|-------------------------------|----------------------------------|---------------------------------|---------------------------------|  
|-------------------------------|----------------------------------|---------------------------------|---------------------------------|  
|-------------------------------|----------------------------------|---------------------------------|---------------------------------|  
  
  
Solo: Dave Murray, também sobre o Riff 4  
   
  
Final  
  
  E5       G5 D        Bm       D  E5               G5    D        Bm       D  E5  
                                                                                      (4x)  
|-0--0--0--3--2-2-2--|----------2--0---0--||--0--0--0--3--2---2--|----------2--0---0---||  
|-0--0--0--3--3-3-3--|-3--3--3--3--0---0--||o-0--0--0--3--3---3--|-3--3--3--3--0---0--o||  
|-x--x--x--0--2-2-2--|-4--4--4--2--x---x--||--x--x--x--0--2---2--|-4--4--4--2--x---x---||  
|-2--2--2--0--0-0-0--|-4--4--4--0--2---2--||--2--2--2--0--0---0--|-4--4--4--0--2---2---||  
|-2--2--2--x---------|-2--2--2-----2---2--||o-2--2--2--x---------|-2--2--2-----2---2--o||  
|-0--0--0--3---------|-------------0---0--||--0--0--0--3---------|-------------0---0---||  
  Oh_oh_oh_oh Oh__oh   Oh_oh_oh_oh Oh__oh     Oh_oh_oh_oh Oh__oh   Oh_oh_oh_oh Oh__oh  
  
  
           G5 D        Bm       D  E5  
|-0--0--0--3--2---2--|----------2--------|  
|-0--0--0--3--3---3--|-3--3--3--3--------|  
|-x--x--x--0--2---2--|-4--4--4--2--^4----|  
|-2--2--2--0--0---0--|-4--4--4--0--^2----|  
|-2--2--2--x---------|-2--2--2-----^2----|  
|-0--0--0--3---------|-------------^0----|  
  Oh_oh_oh_oh Oh__oh   Oh_oh_oh_oh Ohh  
                       (Mais lento)  
  
  
Nota:  
  
Este riff  
  
    E5       G5 D          Bm       D  E5  
||--0--0--0--3--2---2--x-|----------2--0---0---||  
||o-0--0--0--3--3---3--x-|-3--3--3--3--0---0--o||  
||--x--x--x--0--2---2--x-|-4--4--4--2--x---x---||  
||--2--2--2--0--0---0--x-|-4--4--4--0--2---2---||  
||o-2--2--2--x-----------|-2--2--2-----2---2--o||  
||--0--0--0--3-----------|-------------0---0---||  
    Oh_oh_oh_oh Oh__oh     Oh_oh_oh_oh Oh__oh  
  
também pode ser feito assim:  
  
    E5       G5  D5         Bm       D  E5  
||------------------------|---------------------||  
||o-----------------------|--------------------o||  
||--9--9--9--12--7---7--x-|----------7--9---9---||  
||--9--9--9--12--7---7--x-|-9--9--9--7--9---9---||  
||o-7--7--7--10--5---5--x-|-9--9--9--5--7---7--o||  
||------------------------|-7--7--7-------------||  
    Oh_oh_oh_oh  Oh__oh     Oh_oh_oh_oh Oh__oh  


	  

Full key step upFull key step up
Half key step upHalf key step up
Half key step downHalf key step down
Full key step downFull key step down
Search Paypal
auto scroll beats size up size down change color hide chords drawings
tab show chords e-chords YouTube Clip e-chords hide all tabs e-chords go to top tab