Iron Maiden

home > Iron Maiden

Starblind Tab

Iron Maiden

Difficulty: BeginnerBeginner

by tarikike

tuner correct add songbook print version text version save to e-mail
chordsukulelecavacokeyboardtabbassdrumsharmonicsflute Guitar Pro
chords

Starblind

  		
Intro: 
 
E|---------------------------------------------| 
B|---------------------------------------------| 
G|---------------------------------------------| 
D|---4-5----4-5---4-5--------------------------| 
A|-7------7-----7------------------------------| 
E|---------------------------------------------| 


Intro 2 - 3x: 
 
E|---------------------------------------------| 
B|---------------------------------------------| 
G|---------------------------------------------| 
D|----------5-4-----5-4----7-------------------| 
A|----------5-5-----5-5----7-------------------| 
E|-0-0-0-0-------0-------0---------------------| 


 
E|---------------------------------------------| 
B|---------------------------------------------| 
G|---------------------------------------------| 
D|-2--4--5--3----------------------------------| 
A|-0--2--3--3----------------------------------| 
E|----------1----------------------------------| 


Verso: 
 
E|---------------------------------------------| 
B|---------------------------------------------| 
G|---------------------------------------------| 
D|---------5-4---5-4---7-----------------------| 
A|---------5-5---5-5---7----x2-----------------| 
E|-0-0-0-0-----0-----0-------------------------| 


 
E|---------------------------------------------| 
B|---------------------------------------------| 
G|---------------------------------------------| 
D|----------5-4-----5-4------7-----------------| 
A|-3-3-3-3--3-3--3--3-3--3---7----x2-----------| 
E|---------------------------------------------| 


 
E|---------------------------------------------| 
B|---------------------------------------------| 
G|---------------------------------------------| 
D|----------5-4----5-4-----7-------------------| 
A|-0-0-0-0--5-5-0--5-5--0--7----x2-------------| 
E|---------------------------------------------| 


 
E|---------------------------------------------| 
B|---------------------------------------------| 
G|---------------------------------------------| 
D|----------5-4-----5-4-----7------------------| 
A|-3-3-3-3--3-3--3--3-3--3--7---x2-------------| 
E|---------------------------------------------| 


Refrão: 
 
E|---------------------------------------------| 
B|---------------------------------------------| 
G|---------------------------------------------| 
D|-2---5---7-----------------------------------| 
A|-2---3---5---5-5--x2-------------------------| 
E|-0-----------3-2-----------------------------| 


 
E|---------------------------------------------| 
B|---------------------------------------------| 
G|---------------------------------------------| 
D|----8-10-------------------------------------| 
A|-5--6-8---1-0h1p0-------x2-------------------| 
E|-3-----------------1h3-----------------------) 


Solo: 
 
E|-------------------------------------------------| 
B|--10-8p7-----------------------------------------| 
G|---------9--7-5---5\4---2h4p2--------------------| 
D|----------------7--------------5-4---------------| 
A|-------------------------------------------------| 
E|-------------------------------------------------| 


 
E|-------------------------------------------------| 
B|-----------------8-10---10-7-8-----7-------------| 
G|--4-----4-5-7-9----------------9-9----7-9-5-7----| 
D|----5-7------------------------------------------| 
A|-------------------------------------------------| 
E|-------------------------------------------------| 


 
E|-------------------------------------------------| 
B|-------------------------------------------8h10--| 
G|--4h5---4-----4-5-7/9------9-9p7-------7h9-------| 
D|------7---5-7----------------------7h9-----------| 
A|-------------------------------------------------| 
E|-------------------------------------------------| 


 
E|-------------------------------------------------| 
B|-p8----------------------------------------------| 
G|----9----9---12---14-----------------------------| 
D|-------------------------------------------------| 
A|---------7---10---12-----------------------------| 
E|-------------------------------------------------| 


 
E|-------------------------------------------------| 
B|------T------T-----------------------------------| 
G|--4h7-9--4h7-9--7--------------------------------| 
D|-------------------------------------------------| 
A|-------------------------------------------------| 
E|-------------------------------------------------| 


 
E|-10-8-7-----------------------------------------| 
B|---------8p7--7---------------------------------| 
G|----------------7----7h9p7--9---7h9/11----------| 
D|-------------------9----------------------------| 
A|------------------------------------------------| 
E|------------------------------------------------| 


 
E|------------------------------------------------| 
B|------------------------------------------------| 
G|-11--------11--------11--11-12-14-11------------| 
D|----12--------12--------------------------------| 
A|-------14--------14-----------------------------| 
E|------------------------------------------------| 


 
E|------------------------------------------------| 
B|------------------------------------------------| 
G|------------11-11-11---------11------11-12-14-11| 
D|-14--12h14------------12------------------------| 
A|-------------------------14------14-------------| 
E|------------------------------------------------| 


 
E|------------------------------------------------| 
B|------------------------------------------------| 
G|--------11-------------------------------11-12--| 
D|-12----------9---------------------12-14--------| 
A|----14---------12-10-9----10h12/14--------------| 
E|-----------------------12-----------------------| 


 
E|------------------------------------------------| 
B|------------------------------------------------| 
G|-14--12--11h12p11-------------------------------| 
D|------------------10-10--9h10p9-----------------| 
A|--------------------------------12-10-9---------| 
E|----------------------------------------10/12---| 


 
E|---------------------------------------------| 
B|---------------------------------------------| 
G|------------------------4-6-7----------------| 
D|--7--------4-5---4-5-7-----------------------| 
A|----7----7-----7-----------------------------| 
E|---------------------------------------------| 


 
E|---------------------------------------------| 
B|---------------------------------------------| 
G|-5-4---4----------------4b-------------------| 
D|-----7-----7-5-4---4-------7-5-4---4--4b-----| 
A|-----------------7---------------7-----------| 
E|---------------------------------------------| 


 
E|---------------------------------------------| 
B|---------------------------------------------| 
G|---------------------------------------------| 
D|--------------4---4--------------------------| 
A|-7p5-7-7--5-7---7----------------------------| 
E|---------------------7-----------------------| 


 
E|---------------------------------------------| 
B|---------------------------------------------| 
G|-----------------------4--4h7-7-7p4---4-7----| 
D|---------4h5p4---4-5-7--------------7--------| 
A|---4-5-7-------7-----------------------------| 
E|-7-------------------------------------------| 


 
E|---------------------------------------------| 
B|-T-----T-----T-----T-------------------------| 
G|-9-4h7-9-4h7-9-4h7-9-7-----------------------| 
D|---------------------------------------------| 
A|---------------------------------------------| 
E|---------------------------------------------| 


 
E|---------------------------------------------| 
B|---------------------------------------------| 
G|---------------------------------------------| 
D|--------------------------5------------------| 
A|----------7-7-7------5h7---------------------| 
E|-0-0-0-0---------5h7-------------------------| 


 
E|---------------------------------------------| 
B|---------------------------------------------| 
G|---------------------------------------------| 
D|-------------------5----5h7------------------| 
A|----------7-7----3---------------------------| 
E|-0-0-0-0-------3-----5-----------------------| 


Solo 2: 
 
E|---------------------------------------------| 
B|------------------------------------7--------| 
G|-------------------------------7h9----9------| 
D|-------5--------7p5-7/9---7h9----------------| 
A|--5-7----7--5-7------------------------------| 
E|---------------------------------------------| 


 
E|---------------------------------------------| 
B|---------------------------------------------| 
G|-9--7h9p7-6h7---7p6---6----------------------| 
D|--------------------9----9-9p7\5---5\4-------| 
A|---------------------------------7-----5/7---| 
E|---------------------------------------------| 


 
E|---------------------------------------------| 
B|---------------------------------------------| 
G|------------------------------------7--------| 
D|-----------------------5h7h9-5h7h9-----------| 
A|-5--------5---5h7-7/9------------------------| 
E|---5--5h7---7--------------------------------| 


 
E|---------------------------------------------| 
B|----------------------------10--------12-15--| 
G|-7-6h7-6--9p7-9/11--9-11-12-----12-12--------| 
D|---------------------------------------------| 
A|---------------------------------------------| 
E|---------------------------------------------| 


 
E|---------------12h15p12----12----------------| 
B|-15-14br14-15-----------15----15-------------| 
G|---------------------------------------------| 
D|---------------------------------------------| 
A|---------------------------------------------| 
E|---------------------------------------------| 


 
E|---------------------------------------------| 
B|---------------------------------------------| 
G|-------------------4-5-4br4------------------| 
D|-4br4-------4-5-7-----------5-4h5p4----------| 
A|------5-----------------------------7-5------| 
E|---------7------------------------------7----| 


 
E|---------------------------------------------| 
B|---------------------------------------------| 
G|-------------4-5-7-7/9-----------------------| 
D|-------4-5-7---------------------------------| 
A|-7-5-7---------------------------------------| 
E|---------------------------------------------| 


 
E|---------------------------------------------| 
B|---------------------------------------------| 
G|---------------------------------------------| 
D|-5-----7------8----10------------------------| 
A|-3--5--5--x2--6-8--8---x2--------------------| 
E|----3-----------6----------------------------| 


 
E|---------------------------------------------| 
B|-------------------------------------7-8-8---| 
G|----------------------4-----4-5-7--9---------| 
D|----4-5---4-5-7-4-5-7---5-7------------------| 
A|--7-----7------------------------------------| 
E|---------------------------------------------| 


 
E|-18b-18-17-15--17p15h17p15----15-------------| 
B|---------------------------18----18----------| 
G|---------------------------------------------| 
D|---------------------------------------------| 
A|---------------------------------------------| 
E|---------------------------------------------| 


 
E|---------------------------------------------| 
B|-16-15h16p15---------------------------------| 
G|-------------17-15--15h17p15-14h15p14--------| 
D|--------------------------------------17-15--| 
A|---------------------------------------------| 
E|---------------------------------------------| 


 
E|---------------------------------------------| 
B|---------------------------------------------| 
G|------------10---9----10----9----------------| 
D|--7-7-----7----7----7-----7------------------| 
A|--5-5----------------------------------------| 
E|---------------------------------------------| 


 
E|---------------------------------------------| 
B|----------------8----------------------------| 
G|----------10--------10---9-------------------| 
D|--5-5---7----7----7----7---------------------| 
A|--3-3----------------------------------------) 
E|---------------------------------------------| 


 
E|---------------------------------------------| 
B|---------------------------------------------| 
G|---------10---9---10---9---------------------| 
D|-3-3---7----7---7----7-----------------------| 
A|-1-1-----------------------------------------| 
E|---------------------------------------------| 


 
E|---------------------------------------------| 
B|---------------------------------------------| 
G|----------10---9---7---5---------------------| 
D|--5-5---7----7---7---7-----------------------| 
A|--3-3----------------------------------------| 
E|---------------------------------------------| 


 
E|---------------------------------------------| 
B|---------------------------------------------| 
G|---------------------------------------------| 
D|-------------------2-------------------------| 
A|-------------------2-------------------------| 
E|-------------------0-------------------------| 


 
E|---------------------------------------------| 
B|-7h8p7---------------------------------------| 
G|-------9-7-----7-7h9p7---9-7-----------------| 
D|-----------7h9---------------9\7p5---5h7-----| 
A|-----------------------------------7---------| 
E|---------------------------------------------| 


 
E|---------------------------------------------| 
B|---------------------------------------------| 
G|------------------------------9p7------------| 
D|-5h7/9-7p5------------5h7/9-7----------------| 
A|-----------7p5h7--5h7------------------------| 
E|---------------------------------------------| 


 
E|-10p7----------------------------------------| 
B|------8p7-8/10--8-7--------------------------| 
G|---------------------7-7-5---5\4-------------| 
D|---------------------------7-----------------| 
A|---------------------------------------------| 
E|---------------------------------------------| 


 
E|---------------------------------------------| 
B|---------------------------------------------| 
G|---------------------------------------------| 
D|-----------4-4-4-4---------------------------| 
A|-----------2-2-2-2---2-0---------------------| 
E|--------------------------3-2-2-3p2-0--------| 
	  

Search Paypal
auto scroll beats size up size down change color hide chords drawings
tab show chords e-chords YouTube Clip e-chords hide all tabs e-chords go to top tab