Iron Maiden

home > Iron Maiden

Fear of the Dark (ver.2) Tab

Iron Maiden

Difficulty: BeginnerBeginner

by Jonh+Petrucci

tuner correct add songbook print version text version save to e-mail
chordsukulelecavacokeyboardtabbassdrumsharmonicsflute Guitar Pro
chords

Fear of the Dark (ver.2)

  		FEAR OF THE DARK 
As recorded by Iron Maiden 
(From the 1992 Album FEAR OF THE DARK) 
 
 
Words and Music by Steve Harris 
 
Gtr I (E A D G B E) - 'Janick Gers - Lead/Rhythm w/dist' 
Gtr II (E A D G B E) - 'Dave Murray - Lead/Rhythm w/dist' 
Gtr III (E A D G B E) - 'Clean Electric - Lead' 
Gtr IV (E A D G B E) - 'Clean Electric - Rhythm' 
Gtr V (E A D G B E) - 'Rhythm w/dist' 
 
Intro 
  Q=80 
 4/4 
  Gtr I 
     S S S S S S S S S S S S S S S S   S S S S S S S S S S S S S S S S 
||-----------------------------------|-----------------------------------|| 
||o--------------5-5-6-6-5-5-----5-5-|-----------------5-5---------5----o|| 
||---7-7-----7-7-------------7-7-----|-5-5-----5-5-7-7-----7-7-5-5---5---|| 
||-------7-7-------------------------|-----5-5---------------------------|| 
||o----------------------------------|----------------------------------o|| 
||-----------------------------------|-----------------------------------|| 
| 
| Gtr II 
|  PM--------------------------------------------------------------| 
|  S S S S S S S S S S S S S S S S   S S S S S S S S S S S S S S S S 
||-----------------------------------|-----------------------------------|| 
||o----------------------------------|----------------------------------o|| 
||-----------------------------------|-----------------------------------|| 
||-----------------------------------|-----------------------------------|| 
||o--5-5-----5-5-7-7-8-8-7-7-5-5-7-7-|-3-3-----3-3-5-5-7-7-5-5-3-3-7-3--o|| 
||-------5-5-------------------------|-----3-3---------------------------|| 
 
 
 
  S S S S S S S S  S  S S S S S S S 
|-----------------------------------| 
|-----------------------------------| 
|-----------------------------------| 
|-7-7-----7-7-9-9-10-10-9-9-7-7-9-9-| 
|-----7-7---------------------------| 
|-----------------------------------| 
| 
|---------------------------------| 
| S S S S S S S S  S  S S S S S S S 
|-----------------------------------| 
|-----------------------------------| 
|-----------------------------------| 
|-----------------------------------| 
|-0-0-----0-0-2-2--3--3-2-2-0-0-2-2-| 
|-----0-0---------------------------| 
 
 
  S S S S S S S S S S S S S S S S   S S S S S S S S  S  S S S S S S S 
|---------------------------------|-----------------------------------| 
|---------------------------------|-----------------------------------| 
|---------------------------------|-----------------------------------| 
|-5-5-----5-5-7-7-9-9-7-7-5-5-9-5-|-7-7-----7-7-9-9-10-10-9-9-7-7-9-7-| 
|-----5-5-------------------------|-----7-7---------------------------| 
|---------------------------------|-----------------------------------| 
| 
| PM------------------------------------------------------------------- 
| S S S S S S S S S S S S S S S S   S S S S S S S S  S  S S S S S S S 
|---------------------------------|-----------------------------------| 
|---------------------------------|-----------------------------------| 
|---------------------------------|-----------------------------------| 
|-5-5-----5-5-7-7-9-9-7-7-5-5-9-5-|-----------------------------------| 
|-----5-5-------------------------|-0-0-----0-0-2-2--3--3-2-2-0-0-2-2-| 
|---------------------------------|-----0-0---------------------------| 
 
 
  S S S S S S S S S S S S S S S S 
|---------------------------------|| 
|---------------------------------|| 
|---------------------------------|| 
|-3-3-----3-3-5-5-7-7-5-5-3-3-7-3-|| 
|-----3-3-------------------------|| 
|---------------------------------|| 
| 
|-------------------------------| 
| S S S S S S S S S S S S S S S S 
|---------------------------------|| 
|---------------------------------|| 
|---------------------------------|| 
|-3-3-----3-3-5-5-7-7-5-5-3-3-7-3-|| 
|-----3-3-------------------------|| 
|---------------------------------|| 
 
 
 Pre-Verse 
  Gtr III 
           |--3---|   |--3--| 
  E   S S +Q      E   Q     E   E   S S   +E.     S Q       E   E   E   S S 
|---------------------------------------|-----------------------------------| 
|-----------------5---6-----8---6---5---|-------------------------------6---| 
|-------7-(7)-------------------------5-|-(5)-------5-------3---5---5-----7-| 
|-----7---------------------------------|---------5-------------------------| 
|---------------------------------------|-----------------------------------| 
|---------------------------------------|-----------------------------------| 
| 
| Gtr IV 
| S S S S  S  S S   S S S S   S S S S S    S  S S S S S S S S S S S S S S S 
|---------------------------------------|-----------------------------------| 
|---------------------------------------|-----------------------------------| 
|---------------------------------------|-----------------------------------| 
|---7---7-----7-----7---3-----3---3---3-|-----5---5---5---5---3---3---3---3-| 
|-5---5----5----5-----1---1-----1---1---|--3----3---3---3---1---1---1---1---| 
|---------------------------------------|-----------------------------------| 
|-Rhy Fig 1 
 
   |--3---|            |--3---| 
  +Q      E   E   S S +Q      E   E   S S 
|-----------------------------------------| 
|-----------------5-6-(6)-----8---6---5---| 
|-(7)---------7-------------------------5-| 
|---------7-------------------------------| 
|-----------------------------------------| 
|-----------------------------------------| 
| 
|  S  S S   S S S S S  S  S S   S S S S S 
|-----------------------------------------| 
|-----------------------------------------| 
|-----------------------------------------| 
|-----7-----7---7---7-----3-----3---3---3-| 
|--5----5-----5---5----1----1-----1---1---| 
|-----------------------------------------| 
 
 
                                      |--3--|            |--3---| 
  +W                                  Q     E   E   S S +Q      E   E   S S 
|-----------------------------------|---------------------------------------| 
|-----------------------------------|---------------5-6-(6)-----8---6s==5---| 
|-(5)-------------------------------|-----------7-------------------------5-| 
|-----------------------------------|-------7-------------------------------| 
|-----------------------------------|---------------------------------------| 
|-----------------------------------|---------------------------------------| 
| 
|  S  S S S S S S S S S S S S S S S 
|-----------------------------------| 
|-----------------------------------| 
|-----------------------------------| 
|-----5---5---5---5---5---5---5---5-| w/Rhy Fig 1 
|--3----3---3---3---3---3---3---3---| 
|-----------------------------------| 
                      end Rhy Fig 1-| 
 
                                         |--3---| 
  +E.     S E   S S +E.     S E   S S   +Q      E   E   S S +E    S S +E    S S 
|-------------------------------------|-----------------------------------------| 
|---------------------------------6---|-----------------5-6-(6)---8-6-(6)p==5---| 
|-(5)-------5-----3-(3)-----5-5-----7-|-(7)---------7-------------------------5-| 
|---------5-----5---------------------|---------7-------------------------------| 
|-------------------------------------|-----------------------------------------| 
|-------------------------------------|-----------------------------------------| 
 
 
  +W 
|--------------------------------------|| 
|--------------------------------------|| 
|-(5)----------------------------------|| 
|--------------------------------------|| 
|--------------------------------------|| 
|--------------------------------------|| 
 
 
 Verse 
  Gtr IV 
  S S S S S S S S S S S S S S S S 
|---------------------------------| 
|---------------------------------| 
|---------------------------------| 
|---7---7---7---7---3---3---3---3-| 
|-5---5---5---5---1---1---1---1---| 
|---------------------------------| 
 
 
  S S S S S S S S S S S S S S S S   S S S S S S S S S S S S S S S S 
|---------------------------------|---------------------------------| 
|---------------------------------|---------------------------------| 
|---------------------------------|---------------------------------| 
|---5---5---5---5---3---3---5---5-|---7---7---7---7---3---3---3---3-| 
|-3---3---3---3---1---1---3---3---|-5---5---5---5---1---1---1---1---| 
|---------------------------------|---------------------------------| 
 
 
  S S S S S S S S S S S S S S S S 
|---------------------------------| 
|---------------------------------| 
|---------------------------------| 
|---5---5---5---5---3---3---5---5-| 
|-3---3---3---3---1---1---3---3---| 
|---------------------------------| 
 
 
  S S S S S S S S S S S S S S S S   S S S S S S S S S S S S S S S S 
|---------------------------------|---------------------------------| 
|---------------------------------|---------------------------------| 
|---------------------------------|-------------------5---5---7---7-| 
|---7---7---7---7---3---3---3---3-|---5---5---5---5-3---3---5---5---| 
|-5---5---5---5---1---1---1---1---|-3---3---3---3-------------------| 
|---------------------------------|---------------------------------| 
 
 
  S S S S S S S S S S S S S S S S 
|---------------------------------| 
|---------------------------------| 
|---------------------------------| 
|---7---7---7---7---3---3---3---3-| 
|-5---5---5---5---1---1---1---1---| 
|---------------------------------| 
 
 
  S S S S S S S S S S S S S S S S   S S S S S S S S S S S S S S S S 
|---------------------------------|---------------------------------| 
|---------------------------------|---------------------------------| 
|---------------------------------|---------------------------------| 
|---5---5---5---5---5---5---5---5-|---3---3---3---3---5---5---5---5-| 
|-3---3---3---3---3---3---3---3---|-1---1---1---1---3---3---3---3---| 
|---------------------------------|---------------------------------| 
 
 
  S S S S S S S S S S S S S S S S 
|---------------------------------| 
|---------------------------------| 
|---------------------------------| 
|---7---7---7---7---5---5---5---5-| 
|-5---5---5---5---3---3---3---3---| 
|---------------------------------| 
 
 
  S S S S S S S S S S S S S S S S   S S S S S S S S S S S S S S S S 
|---------------------------------|---------------------------------| 
|---------------------------------|---------------------------------| 
|-------------------5---5---7---7-|---------------------------------| 
|---3---3---3---3-3---3---5---5---|---7---7---7---7---7---7---7---7-| 
|-1---1---1---1-------------------|-5---5---5---5---5---5---5---5---| 
|---------------------------------|---------------------------------| 
 
 
  S S S S S S S S S S S S S S S S   S S S S S S S S S S S S S S S S 
|---------------------------------|---------------------------------| 
|---------------------------------|---------------------------------| 
|---------------------------------|---------------------------------| 
|---3---3---3---3---5---5---5---5-|---7---7---7---7---5---5---5---5-| 
|-1---1---1---1---3---3---3---3---|-5---5---5---5---3---3---3---3---| 
|---------------------------------|---------------------------------| 
 
 
                                                                 Gtrs I, II 
  S S S S S S S S S S S S S S S S   S S S S S S S S S S S S  S S S S 
|---------------------------------|-----------------------------------|| 
|---------------------------------|-----------------------------------|| 
|-------------------5---5---7---7-|-----------------------------------|| 
|---3---3---3---3-3---3---5---5---|---7---7---7---7---7---7-----------|| 
|-1---1---1---1-------------------|-5---5---5---5---5---5----5-----5--|| 
|---------------------------------|-----------------------------------|| 
 
 
 Pre-Verse 
  Q=200 
  +E  E E E E E E E   E E E E E E E E   +E  E E E E E E E   E E E E E E E E 
|-------------------|-----------------|-------------------|-----------------| 
|-------------------|-----------------|-------------------|-----------------| 
|-------------------|-----------------|-------------------|-----------------| 
|-------7-7-5-5-7-7-|-----7-7-5-5-7---|-------7-7-5-5-7-7-|-----7-7-5-5-7---| 
|-(5)-5-------------|-5-5-----------5-|-(5)-5-------------|-5-5-----------5-| 
|-------------------|-----------------|-------------------|-----------------| 
 
 
  +E  E E E E E E E   E E E E E E E E   +E  E E E E E E E   E E E E E E E E 
|-------------------|-----------------|-------------------|-----------------| 
|-------------------|-----------------|-------------------|-----------------| 
|-------------------|-----------------|-------------------|-----------------| 
|-------7-7-5-5-7-7-|-----7-7-5-5-7---|-------------------|-----5-5---------| 
|-(5)-5-------------|-5-5-----------5-|-(5)-5-----5-5-7-7-|-8-8-----8-8-7-5-| 
|-------------------|-----------------|-------5-5---------|-----------------| 
 
 
  +E  E E E E E E E   E E E E E E E E   +E  E E E E E E E   E E E E E E E E 
|-------------------|-----------------|-------------------|-----------------| 
|-------------------|-----------------|-------------------|-----------------| 
|-------------------|-----------------|-------------------|-----------------| 
|-------7-7-5-5-7-7-|-----7-7-5-5-7---|-------7-7-5-5-7-7-|-----7-7-5-5-7---| 
|-(5)-5-------------|-5-5-----------5-|-(5)-5-------------|-5-5-----------5-| 
|-------------------|-----------------|-------------------|-----------------| 
 
 
  +E  E E E E E E E   E E E E E E E E   +E  E E E E E E E   E E E E E E E E 
|-------------------|-----------------|-------------------|-----------------|| 
|-------------------|-----------------|-------------------|-----------------|| 
|-------------------|-----------------|-------------------|-----------------|| 
|-------7-7-5-5-7-7-|-----7-7-5-5-7---|-------------------|-----5-5-------7-|| 
|-(5)-5-------------|-5-5-----------5-|-(5)-5-----5-5-7-7-|-8-8-----8-8-7-5-|| 
|-------------------|-----------------|-------5-5---------|-----------------|| 
 
 
 Verse 
  +H     +Q.   E   +H     +Q.   E   +H     +Q.   E   +H     +Q.   E 
|----------------|----------------|----------------|----------------| 
|----------------|----------------|----------------|----------------| 
|----------------|----------------|----------------|----------------| 
|-(7)----(7)---7-|-(7)----(7)---3-|-(3)----(3)---3-|-(3)----(3)---5-| 
|-(5)----(5)---5-|-(5)----(5)---1-|-(1)----(1)---1-|-(1)----(1)---3-| 
|----------------|----------------|----------------|----------------| 
 
 
  +H     +Q.   E   +H     +Q.   E   +H     +Q.   E   +H     +Q.   E 
|----------------|----------------|----------------|----------------| 
|----------------|----------------|----------------|----------------| 
|----------------|----------------|----------------|----------------| 
|-(5)----(5)---5-|-(5)----(5)---7-|-(7)----(7)---7-|-(7)----(7)---7-| 
|-(3)----(3)---3-|-(3)----(3)---5-|-(5)----(5)---5-|-(5)----(5)---5-| 
|----------------|----------------|----------------|----------------| 
 
 
  +H     +Q.   E   +H     +Q.   E   +H     +Q.   E   +H     +Q.   E 
|----------------|----------------|----------------|----------------| 
|----------------|----------------|----------------|----------------| 
|----------------|----------------|----------------|----------------| 
|-(7)----(7)---7-|-(7)----(7)---3-|-(3)----(3)---3-|-(3)----(3)---5-| 
|-(5)----(5)---5-|-(5)----(5)---1-|-(1)----(1)---1-|-(1)----(1)---3-| 
|----------------|----------------|----------------|----------------| 
 
 
  +H     +Q.   E   +H     +Q.   E   +H     +Q.   E   +H     +Q.   E 
|----------------|----------------|----------------|----------------|| 
|----------------|----------------|----------------|----------------|| 
|----------------|----------------|----------------|----------------|| 
|-(5)----(5)---5-|-(5)----(5)---7-|-(7)----(7)---7-|-(7)----(7)---3-|| 
|-(3)----(3)---3-|-(3)----(3)---5-|-(5)----(5)---5-|-(5)----(5)---1-|| 
|----------------|----------------|----------------|----------------|| 
 
 
 Chorus 
  +H     +Q.   E   +H     +Q.   E   +H     +Q.   E   +H     +Q.   E 
|----------------|----------------|----------------|----------------| 
|----------------|----------------|----------------|----------------| 
|----------------|----------------|----------------|----------------| 
|-(3)----(3)---5-|-(5)----(5)---7-|-(7)----(7)---5-|-(5)----(5)---3-| 
|-(1)----(1)---3-|-(3)----(3)---5-|-(5)----(5)---3-|-(3)----(3)---1-| 
|----------------|----------------|----------------|----------------| 
 
 
  +H     +Q.   E   +Q.   E +Q.   E   +W           +H     +Q.   E 
|----------------|-----------------|------------|----------------| 
|----------------|-----------------|------------|----------------| 
|----------------|-----------------|------------|----------------| 
|-(3)----(3)-----|---------------7-|-(7)--------|-(7)----(7)---3-| 
|-(1)----(1)---3-|-(3)---5-(5)---5-|-(5)--------|-(5)----(5)---1-| 
|--------------1-|-(1)---3-(3)-----|------------|----------------| 
 
 
  +H     +Q.   E   +H     +Q.   E   +H     +Q.   E   +H     +Q.   E 
|----------------|----------------|----------------|----------------| 
|----------------|----------------|----------------|----------------| 
|----------------|----------------|----------------|----------------| 
|-(3)----(3)---5-|-(5)----(5)---7-|-(7)----(7)---5-|-(5)----(5)---3-| 
|-(1)----(1)---3-|-(3)----(3)---5-|-(5)----(5)---3-|-(3)----(3)---1-| 
|----------------|----------------|----------------|----------------| 
 
 
  +H     +Q.   E   +Q.   E +Q.   E   +W           +H     +Q.   E 
|----------------|-----------------|------------|----------------|| 
|----------------|-----------------|------------|----------------|| 
|----------------|-----------------|------------|----------------|| 
|-(3)----(3)-----|---------------7-|-(7)--------|-(7)----(7)---7-|| 
|-(1)----(1)---3-|-(3)---5-(5)---5-|-(5)--------|-(5)----(5)---5-|| 
|--------------1-|-(1)---3-(3)-----|------------|----------------|| 
 
 
 Verse 
  $ 
  +H     +Q.   E   +H     +Q.   E   +H     +Q.   E   +Q.   E +Q.   E 
|----------------|----------------|----------------|-----------------| 
|----------------|----------------|----------------|-----------------| 
|----------------|----------------|----------------|-----------------| 
|-(7)----(7)---3-|-(3)----(3)---5-|-(5)----(5)---7-|-(7)---5-(5)---7-| 
|-(5)----(5)---1-|-(1)----(1)---3-|-(3)----(3)---5-|-(5)---3-(3)---5-| 
|----------------|----------------|----------------|-----------------| 
 
 
  +H     +Q.   E   +H     +Q.   E   +W           +H     +Q.   E 
|----------------|----------------|------------|----------------| 
|----------------|----------------|------------|----------------| 
|----------------|----------------|------------|----------------| 
|-(7)----(7)---3-|-(3)----(3)---5-|-(5)--------|-(5)----(5)---7-| 
|-(5)----(5)---1-|-(1)----(1)---3-|-(3)--------|-(3)----(3)---5-| 
|----------------|----------------|------------|----------------| 
 
 
  +H     +Q.   E   +H     +Q.   E   +H     +Q.   E   +Q.   E +Q.   E 
|----------------|----------------|----------------|-----------------| 
|----------------|----------------|----------------|-----------------| 
|----------------|----------------|----------------|-----------------| 
|-(7)----(7)---3-|-(3)----(3)---5-|-(5)----(5)-----|---------------7-| 
|-(5)----(5)---1-|-(1)----(1)---3-|-(3)----(3)---3-|-(3)---5-(5)---5-| 
|----------------|----------------|--------------1-|-(1)---3-(3)-----| 
 
 
  +H     +Q.   E   +H     +Q.   E   +W           +H     +Q.   E 
|----------------|----------------|------------|----------------|| 
|----------------|----------------|------------|----------------|| 
|----------------|----------------|------------|----------------|| 
|-(7)----(7)---3-|-(3)----(3)---5-|-(5)--------|-(5)----(5)---3-|| 
|-(5)----(5)---1-|-(1)----(1)---3-|-(3)--------|-(3)----(3)---1-|| 
|----------------|----------------|------------|----------------|| 
 
 
 Chorus 
       PM|    PM|      PM|    PM|      PM|    PM|      PM|    PM| 
  +Q   E E Q  E E   Q  E E Q  E E   Q  E E Q  E E   Q  E E Q  E E 
|-----------------|---------------|---------------|---------------| 
|-----------------|---------------|---------------|---------------| 
|-----------------|---------------|---------------|---------------| 
|-(3)------3------|-5------5------|-7------7------|-5------5------| 
|-(1)--1-1-1--1-1-|-3--3-3-3--3-3-|-5--5-5-5--5-5-|-3--3-3-3--3-3-| 
|-----------------|---------------|---------------|---------------| 
 
 
     PM|    PM|                  PM|    PM|      PM|    PM| 
  Q  E E Q  E E   H    H      Q  E E Q  E E   Q  E E Q  E E 
|---------------|-----------|---------------|---------------| 
|---------------|-6----8----|---------------|---------------| 
|---------------|-5----7----|---------------|---------------| 
|-3------3------|-3----5----|-7------7------|-7------7------| 
|-1--1-1-1--1-1-|-3----5----|-5--5-5-5--5-5-|-5--5-5-5--5-5-| 
|---------------|-----------|---------------|---------------| 
 
 
     PM|    PM|      PM|    PM|      PM|    PM|      PM|    PM| 
  Q  E E Q  E E   Q  E E Q  E E   Q  E E Q  E E   Q  E E Q  E E 
|---------------|---------------|---------------|---------------| 
|---------------|---------------|---------------|---------------| 
|---------------|---------------|---------------|---------------| 
|-3------3------|-5------5------|-7------7------|-5------5------| 
|-1--1-1-1--1-1-|-3--3-3-3--3-3-|-5--5-5-5--5-5-|-3--3-3-3--3-3-| 
|---------------|---------------|---------------|---------------| 
 
 
                                     To Coda 
     PM|    PM|                  PM|    PM|      PM|    PM| 
  Q  E E Q  E E   H    H      Q  E E Q  E E   Q  E E Q  E E 
|---------------|-----------|---------------|---------------|| 
|---------------|-6----8----|---------------|---------------|| 
|---------------|-5----7----|---------------|---------------|| 
|-3------3------|-3----5----|-7------7------|-7------7------|| 
|-1--1-1-1--1-1-|-3----5----|-5--5-5-5--5-5-|-5--5-5-5--5-5-|| 
|---------------|-----------|---------------|---------------|| 
 
 
    +E  E E E E E E E   E E E E E E E E   +E  E E E E E E E   E E E E E E E E 
||--------------------|-----------------|-------------------|------------------| 
||o-------------------|-----------------|-------------------|------------------| 
||--------------------|-----------------|-------------------|------------------| 
||--------7-7-5-5-7-7-|-----7-7-5-5-7---|-------7-7-5-5-7-7-|-----7-7-5-5-7----| 
||o-(5)-5-------------|-5-5-----------5-|-(5)-5-------------|-5-5-----------5--| 
||--------------------|-----------------|-------------------|------------------| 
 
 
  +E  E E E E E E E   E E E E E E E E   +E  E E E E E E E 
|-------------------|-----------------|-------------------| 
|-------------------|-----------------|-------------------| 
|-------------------|-----------------|-------------------| 
|-------7-7-5-5-7-7-|-----7-7-5-5-7---|-------------------| 
|-(5)-5-------------|-5-5-----------5-|-(5)-5-----5-5-7-7-| 
|-------------------|-----------------|-------5-5---------| 
 
 
 1.                   2. 
  E E E E E E E E      E E E E E E E E 
|------------------||--------------------|| 
|-----------------o||--------------------|| 
|------------------||----------------7---|| 
|-----5-5----------||------5-5-----------|| 
|-8-8-----8-8-7-5-o||--8-8-----8-8-7-----|| 
|------------------||--------------------|| 
 
 
  Q=120 
  +H     Q  Q    Q.   S S Q.   S S   Q.   S S Q  E    +E    +W 
|--------------|-------------------|----------------------|--------| 
|--------5--6--|-5----6p5----------|----------------------|--------| 
|-(7)----------|----------7----7p5-|----------------------|--------| 
|--------------|-------------------|-8----8p7-5--7b8==(7)r|=(7)----| 
|--------------|-------------------|----------------------|--------| 
|--------------|-------------------|----------------------|--------| 
 
 
  H    Q  Q    Q.   S S Q.   S S   Q.   S S Q  Q    H    +Q.   E 
|------------|-------------------|----------------|---------------| 
|------5--6--|-5----6p5----------|----------------|---------------| 
|-7----------|----------7----7p5-|-------------5--|-7----(7)------| 
|------------|-------------------|-8----8p7-5-----|------------7--| 
|------------|-------------------|----------------|---------------| 
|------------|-------------------|----------------|---------------| 
 
 
  H    +E  E E E   E S S Q  +E  E E E   E S S Q  +E  S S E E   H    +Q.   E 
|----------------|--------------------|----------------------|---------------| 
|--------------5-|-6-8p6-5--(5)-----5-|-6-8-6-5--(5)---------|---------------| 
|-7----(7)---7---|----------------7---|--------------7-5-----|---------------| 
|----------7-----|--------------7-----|------------------7-8-|-7----(7)---7--| 
|----------------|--------------------|----------------------|---------------| 
|----------------|--------------------|----------------------|---------------| 
 
 
  H    +E  E E E   E S S Q  +E  E E E 
|----------------|--------------------| 
|--------------5-|-6-8-6-5--(5)-----5-| 
|-7----(7)---7---|----------------7---| 
|----------7-----|--------------7-----| 
|----------------|--------------------| 
|----------------|--------------------| 
 
 
                   Gtr I 
  E S S Q  E S S E  a    +E    +Q   +H. 
|-------------------5b8==(5)-|-(5)r=(5)----|| 
|-6-8-6-5--5-----------------|-------------|| 
|------------7p5-------------|-------------|| 
|----------------7-----------|-------------|| 
|----------------------------|-------------|| 
|----------------------------|-------------|| 
 
 
 Guitar Solo (Janick Gers) 
  Gtr I 
                                        ~~ 
   a       Q     a      +S   +S   S  S  Q   +E  a  a  E 
|-------------------------------------------------------| 
|---------13--------------------------------------------| 
|-12b14==(12)r--12b14==(12)r(12)-10----10--(10)s0-------| 
|-----------------------------------12------------------| 
|-------------------------------------------------10h12-| 
|-------------------------------------------------------| 
| 
| Gtr II 
|          W 
|-------------------------------------------------------| 
|-------------------------------------------------------| 
|-------------------------------------------------------| 
|----------7--------------------------------------------| 
|----------5--------------------------------------------| 
|-------------------------------------------------------| 
 
 
                                                      |-----5-----| 
   E.  S      +E    S  S  +Q.    a      +E     +Q     S  S  S  S  S  S  S  S  S  S  S  S  S 
|------------------10-10-(10)---13b15==(13)-|-(13)r--13-12-10----10-------------------------| 
|------------------10-10-(10)---------------|-----------------10----13-11p10----10----------| 
|-10--12b14==(12)r--------------------------|--------------------------------12----12p10----| 
|-10----------------------------------------|--------------------------------------------12-| 
|-------------------------------------------|-----------------------------------------------| 
|-------------------------------------------|-----------------------------------------------| 
| 
| +W                                            H                    H 
|-------------------------------------------|-----------------------------------------------| 
|-------------------------------------------|-----------------------------------------------| 
|-------------------------------------------|-----------------------------------------------| 
|-(7)---------------------------------------|---3--------------------5----------------------| 
|-(5)---------------------------------------|---1--------------------3----------------------| 
|-------------------------------------------|-----------------------------------------------| 
 
 
      ~~                                                  PM---| 
                                                          |--3--| 
   E  Q   E  +E   +Q    E    a      +Q     S  S  S  S  S  S  S  S  S  E  E 
|-------------------------|-15b17==(15)r--15-13s12-13----------------------| 
|-------------------------|---------------------------13----------13-------| 
|-10-12--10-(10)-(10)\----|------------------------------------12----12s10-| 
|-------------------------|---------------------------------14-------------| 
|-------------------------|------------------------------15----------------| 
|-------------------------|------------------------------------------------| 
| 
|  W                                 W 
|-------------------------|------------------------------------------------| 
|-------------------------|------------------------------------------------| 
|-------------------------|------------------------------------------------| 
|--7----------------------|----------7-------------------------------------| 
|--5----------------------|----------5-------------------------------------| 
|-------------------------|------------------------------------------------| 
 
 
   a       Q     a      +S   +S   S  S  H 
|--------------------------------------------| 
|---------10---------------------------------| 
|-12b14==(12)r--12b14==(12)r(12)-10----10----| 
|-----------------------------------12-------| 
|--------------------------------------------| 
|--------------------------------------------| 
| 
|          W 
|--------------------------------------------| 
|--------------------------------------------| 
|--------------------------------------------| 
|----------7---------------------------------| 
|----------5---------------------------------| 
|--------------------------------------------| 
 
 
   a       Q     a      +S   S  S  S  S  S  S  S  S  S  S S 
|---------13------------------------------------------------| 
|---------13------------------------------------------------| 
|-12b14==(12)r--12pb14r(12)p10----10------------------------| 
|------------------------------12----12p10----10------------| 
|------------------------------------------12----12-11p10p8-| 
|-----------------------------------------------------------| 
| 
|          H                          H 
|-----------------------------------------------------------| 
|-----------------------------------------------------------| 
|-----------------------------------------------------------| 
|----------3--------------------------5---------------------| 
|----------1--------------------------3---------------------| 
|-----------------------------------------------------------| 
 
 
                  Gtr II 
   H           Q  E  S  a      +S 
|----------------------17b19==(17)--|| 
|-------------------14--------------|| 
|-----------------------------------|| 
|-----------------------------------|| 
|-10p8------------------------------|| 
|------10-10--10--------------------|| 
|  S S  E  Q   H 
| 
|  W 
|-----------------------------------|| 
|-----------------------------------|| 
|-----------------------------------|| 
|--7--------------------------------|| 
|--5--------------------------------|| 
|-----------------------------------|| 
 
 
 Guitar Solo (Dave Murray) 
  Gtr II 
   +Q     Q   S  S  T  T  T  T  T  T  T  T  S   T  T 
|-(17)r--17--16-17-16p14h16p14----15p14--------------| 
|------------------------------17-------17p14\----14h| 
|----------------------------------------------16----| 
|----------------------------------------------------| 
|----------------------------------------------------| 
|----------------------------------------------------| 
| 
| Gtr I 
|   W 
|----------------------------------------------------| 
|----------------------------------------------------| 
|---6------------------------------------------------| 
|---4------------------------------------------------| 
|----------------------------------------------------| 
|----------------------------------------------------| 
 
 
                                                |--3--|  |--3--| 
   T  T  T  T  T  T  T  T  T  T  T  T  T  S  T  S  S  S  S  S  S  E  a      +E 
|---------------------------------------------------------------------------------| 
|-17p14----14h17p14----14-15p14----14-15p14----------------14h15-14-17b19==(17)r==| 
|-------16----------16----------16----------16p14p13-14h16------------------------| 
|---------------------------------------------------------------------------------| 
|---------------------------------------------------------------------------------| 
|---------------------------------------------------------------------------------| 
| 
|  W 
|---------------------------------------------------------------------------------| 
|---------------------------------------------------------------------------------| 
|--6------------------------------------------------------------------------------| 
|--4------------------------------------------------------------------------------| 
|---------------------------------------------------------------------------------| 
|---------------------------------------------------------------------------------| 
 
 
                                            |--3--| 
   a  a  S  E  a  S  S  S  S S  T  T  T  T  S  S  S  S  S  T  T  T  T 
|-------------15s17p14------------------------------------------------| 
|-17s15s17p14----------17p14---15-14----14h17p14----14----------------| 
|----------------------------x-------16----------16----16p14h16p14----| 
|------------------------------------------------------------------16-| 
|---------------------------------------------------------------------| 
|---------------------------------------------------------------------| 
| 
|        H                      H 
|---------------------------------------------------------------------| 
|---------------------------------------------------------------------| 
|--------2----------------------4-------------------------------------| 
|--------0----------------------2-------------------------------------| 
|---------------------------------------------------------------------| 
|---------------------------------------------------------------------| 
 
 
            |--3--| 
   S  T  T  S  S  S  +S   S  S  S  S  a      +S   +S   S  +E    S  a      +S 
|--------------------------------------------------------------19-19b21==(19)-| 
|-----------------------------------------------------------------------------| 
|-14------------------------------14-16b18==(16)r(16)-14-(14)\----------------| 
|----16p14-16p14------------14h16---------------------------------------------| 
|----------------16-(16)-16---------------------------------------------------| 
|-----------------------------------------------------------------------------| 
| 
|  W 
|-----------------------------------------------------------------------------| 
|-----------------------------------------------------------------------------| 
|--6--------------------------------------------------------------------------| 
|--4--------------------------------------------------------------------------| 
|-----------------------------------------------------------------------------| 
|-----------------------------------------------------------------------------| 
 
 
                                     |--3--| 
   +Q    +E   +E   S  S  S  S  S  S  S  S  S 
|-(19)--(19)r(19)-17s16----------------------| 
|-----------------------17----------14h15h16-| 
|--------------------------16s14h16----------| 
|--------------------------------------------| 
|--------------------------------------------| 
|--------------------------------------------| 
| 
|   W 
|--------------------------------------------| 
|--------------------------------------------| 
|---6----------------------------------------| 
|---4----------------------------------------| 
|--------------------------------------------| 
|--------------------------------------------| 
 
 
                                          |3-|  |--3--| 
   T  S  T  T  T  T  T  S  T  T  S  T  T  E  S  S  S  S  S.  T  T  T  T  T 
|-14h17p16p14----14h16p14--------------------------------------------------| 
|-------------17----------17p15p14-14h15p14-14h15-14-----------------------| 
|----------------------------------------------------16s18--18h19p18h19p18-| 
|--------------------------------------------------------------------------| 
|--------------------------------------------------------------------------| 
|--------------------------------------------------------------------------| 
| 
|  W 
|--------------------------------------------------------------------------| 
|--------------------------------------------------------------------------| 
|--6-----------------------------------------------------------------------| 
|--4-----------------------------------------------------------------------| 
|--------------------------------------------------------------------------| 
|--------------------------------------------------------------------------| 
 
 
   E  T  T  T  T  E  T  T  T  T  E  T  T  T  T  S  T  T  S  S 
|-------------------------------------------------------------| 
|-------------------------------------------------------14-19-| 
|-19-18h19p18p16-18-16h18p16s14-16-14h16p14p13-14----14-------| 
|-------------------------------------------------16----------| 
|-------------------------------------------------------------| 
|-------------------------------------------------------------| 
| 
|  H                             H 
|-------------------------------------------------------------| 
|-------------------------------------------------------------| 
|--2-----------------------------4----------------------------| 
|--0-----------------------------2----------------------------| 
|-------------------------------------------------------------| 
|-------------------------------------------------------------| 
 
 
      |--3--|  |3-|  |--3--| 
   E  S  S  S  E  S  S  S  S  H 
|---------------------------------------|| 
|-19-14h19p14----------14-19-19---------|| 
|-------------14----14------------------|| 
|----------------14---------------------|| 
|---------------------------------------|| 
|---------------------------------------|| 
| 
|  H                         +Q.   S S 
|---------------------------------------|| 
|---------------------------------------|| 
|--6-------------------------(6)---7-7--|| 
|--4-------------------------(4)--------|| 
|---------------------------------------|| 
|---------------------------------------|| 
 
 
   Chorus 
    Gtrs I, II 
    E E E E +Q.   S S   E E E E +E  Q  E 
||----5---3-(3)-------|---5--------------| 
||o-----6-------------|-----6-8-(8)-6----| 
||--7-------------7-7-|-7--------------3-| 
||--------------------|------------------| 
||o-------------------|------------------| 
||--------------------|------------------| 
 
 
  E E E E +Q.   E   E E E E +E  E +E  S S 
|-----------------|------------------------| 
|---6-3-5-(5)-----|---6-3-5-(5)------------| 
|-3-------------3-|-3-----------5-(5)------| 
|-----------------|-------------------5-5--| 
|-----------------|------------------------| 
|-----------------|------------------------| 
 
 
  E E E E +Q.   S S   E E E E +E  E Q      E  E E E +E  E E E 
|-------------------|-------------------|---------------------| 
|---3---------------|---6---5-(5)-------|---------------------| 
|-----3-5-(5)-------|-----7-------5-----|--7----7-5-(5)---5-7-| 
|-5-------------7-7-|-7-------------7---|-----7---------7-----| 
|-------------------|-------------------|---------------------| 
|-------------------|-------------------|---------------------| 
| 
| Gtr V 
| W                   Q   H         E E   +W 
|-------------------|-----------------0-|-(0)-----------------| 
|-------------------|-----------------3-|-(3)-----------------| 
|-------------------|-----------------2-|-(2)-----------------| 
|-------------------|-----------------0-|-(0)-----------------| 
|-------------------|-------------------|---------------------| 
|-------------------|-------------------|---------------------| 
 
 
 1.,2.                    3. 
  +E  E E E +E  E E E      +E  E E E +Q.   E 
|----------------------||---------------------|| 
|---------------------o||---------------------|| 
|-(7)---7-5-(5)---5-7--||--(7)---7-5-(5)------|| 
|-----7---------7------||------7--------------|| 
|---------------------o||------------------5--|| 
|----------------------||---------------------|| 
| 
| +W                        W 
|-(0)------------------||---------------------|| 
|-(3)-----------------o||---------------------|| 
|-(2)------------------||---------------------|| 
|-(0)------------------||---------------------|| 
|---------------------o||---------------------|| 
|----------------------||---------------------|| 
 
 
    Q=200 
    +E  E E E E E E E   E E E E E E E E   +E  E E E E E E E   E E E E E E E E 
||--------------------|-----------------|-------------------|------------------| 
||o-------------------|-----------------|-------------------|------------------| 
||--------------------|-----------------|-------------------|------------------| 
||--------7-7-5-5-7-7-|-----7-7-5-5-7---|-------7-7-5-5-7-7-|-----7-7-5-5-7----| 
||o-(5)-5-------------|-5-5-----------5-|-(5)-5-------------|-5-5-----------5--| 
||--------------------|-----------------|-------------------|------------------| 
 
 
  +E  E E E E E E E   E E E E E E E E   +E  E E E E E E E 
|-------------------|-----------------|-------------------| 
|-------------------|-----------------|-------------------| 
|-------------------|-----------------|-------------------| 
|-------7-7-5-5-7-7-|-----7-7-5-5-7---|-------------------| 
|-(5)-5-------------|-5-5-----------5-|-(5)-5-----5-5-7-7-| 
|-------------------|-----------------|-------5-5---------| 
 
 
 1.                   2. 
                            D.S. al Coda 
  E E E E E E E E      E E E E E E E E 
|------------------||--------------------|| 
|-----------------o||--------------------|| 
|------------------||--------------------|| 
|-----5-5----------||------5-5-------7---|| 
|-8-8-----8-8-7-5-o||--8-8-----8-8-7-5---|| 
|------------------||--------------------|| 
 
 
  & 
     PM|    PM|      PM|    PM|      PM|    PM|      PM|    PM| 
  Q  E E Q  E E   Q  E E Q  E E   Q  E E Q  E E   Q  E E Q  E E 
|---------------|---------------|---------------|---------------| 
|---------------|---------------|---------------|---------------| 
|---------------|---------------|---------------|---------------| 
|-7------7------|-3------3------|-5------5------|-7------7------| 
|-5--5-5-5--5-5-|-1--1-1-1--1-1-|-3--3-3-3--3-3-|-5--5-5-5--5-5-| 
|---------------|---------------|---------------|---------------| 
 
 
     PM|    PM|      PM|    PM|                  PM|    PM| 
  Q  E E Q  E E   Q  E E Q  E E   H    H      Q  E E Q  E E 
|---------------|---------------|-----------|---------------| 
|---------------|---------------|-6----8----|---------------| 
|---------------|---------------|-5----7----|---------------| 
|-5------5------|-3------3------|-3----5----|-7------7------| 
|-3--3-3-3--3-3-|-1--1-1-1--1-1-|-3----5----|-5--5-5-5--5-5-| 
|---------------|---------------|-----------|---------------| 
 
 
     PM|    PM|      PM|    PM|      PM|    PM|      PM|    PM| 
  Q  E E Q  E E   Q  E E Q  E E   Q  E E Q  E E   Q  E E Q  E E 
|---------------|---------------|---------------|---------------| 
|---------------|---------------|---------------|---------------| 
|---------------|---------------|---------------|---------------| 
|-7------7------|-3------3------|-5------5------|-7------7------| 
|-5--5-5-5--5-5-|-1--1-1-1--1-1-|-3--3-3-3--3-3-|-5--5-5-5--5-5-| 
|---------------|---------------|---------------|---------------| 
 
 
                                H.=H 
     PM|    PM|      PM|    PM| 
  Q  E E Q  E E   Q  E E Q  E E   H    H      W 
|---------------|---------------|-----------|------|| 
|---------------|---------------|-6----8----|-3----|| 
|---------------|---------------|-5----7----|-2----|| 
|-5------5------|-3------3------|-3----5----|-0----|| 
|-3--3-3-3--3-3-|-1--1-1-1--1-1-|-3----5----|-0----|| 
|---------------|---------------|-----------|------|| 
 
 
 Outro 
  Q=80 
w/Rhy Fig 1 
  Gtr III 
  |--3--|            |--3---| 
  Q     E   E   S S +Q      E   E   S S   +E.     S E   S S +E.     S E   S S 
|---------------------------------------|-------------------------------------| 
|---------------5-6-(6)-----8---6---5---|---------------------------------6---| 
|-----------7-------------------------5-|-(5)-------5-----3-(3)s====5-5-----7-| 
|-------7-------------------------------|---------5-----5---------------------| 
|---------------------------------------|-------------------------------------| 
|---------------------------------------|-------------------------------------| 
 
 
   |--3---| 
  +Q      E   E   S S +E    S S +E    S S   +W 
|-----------------------------------------|------------------------------------| 
|-----------------5-6-(6)---8-6-(6)p==5---|------------------------------------| 
|-(7)---------7-------------------------5-|-(5)--------------------------------| 
|---------7-------------------------------|------------------------------------| 
|-----------------------------------------|------------------------------------| 
|-----------------------------------------|------------------------------------| 
 
 
  Gtr IV 
  S S S S S S S S S S S S S S S S 
|---------------------------------| 
|---------------------------------| 
|---------------------------------| 
|---7---7---7---7---3---3---3---3-| 
|-5---5---5---5---1---1---1---1---| 
|---------------------------------| 
 
 
                                  H.=H 
  S S S S S S S S S S S S S S S S   S S S S H. 
|---------------------------------|---------------*| 
|---------------------------------|---------------*| 
|-------------------5---5---7---7-|---------------*| 
|---3---3---3---3-3---3---5---5---|---7---7-------*| 
|-1---1---1---1-------------------|-5---5---5-----*| 
|---------------------------------|---------------*| 

	  

Full key step upFull key step up
Half key step upHalf key step up
Half key step downHalf key step down
Full key step downFull key step down
Search Paypal
auto scroll beats size up size down change color hide chords drawings
tab show chords e-chords YouTube Clip e-chords hide all tabs e-chords go to top tab