Iron Maiden

home > Iron Maiden

Prowler Tab

Iron Maiden

Difficulty: AdvancedAdvanced

by ALMA%5FDE%5FGATO

tuner correct add songbook print version text version save to e-mail
chordsukulelecavacokeyboardtabbassdrummharmonicsflute Guitar Pro
chords

Prowler

Year: 1980 - Album: Trooper

  		Disco: Iron Maiden (1980)

   Intro :
E-|-----------------------------|---------------------------------------------|
B-|-----------------------------|---------------------------------------------|
G-|--7s12--11b-14--11b--12------|--7h9-7h9-7h9--------------------------------|
D-|-----------------------------|---------------------------------------------|
A-|-----------------------------|---------------------------------------------|
E-|-----------------------------|---------------------------------------------|
                                                                               
                                                                               
E-|-----------------------------|---------------------------------------------|
B-|-----------------------------|---------------------------------------------|
G-|--12--11b-14-11b-12----------|--7h9-7h9-7h9--9--7---7----------------------|
D-|-----------------------------|--------------------9---9--7-----------------|
A-|-----------------------------|---------------------------------------------|
E-|-----------------------------|---------------------------------------------|
                                                                               
   Rythem For Intro :                                                                             
E-|---------------------------------------------------------------------------|
B-|---------------------------------------------------------------------------|
G-|--7-7-7------7---7---7--7-7-7----7---7---7---------------------------------|
D-|--7-7-7------7---7---7--7-7-7----7---7---7---------------------------------|
A-|--5-5-5---x--5-x-5-x-5--5-5-5----5-x-5-x-5---------------------------------|
E-|---------------------------------------------------------------------------|
                                                                               
                                                                               

E-|---------------------------------------------------------------------------|
B-|---------------------------------------------------------------------------|
G-|--7-7-7------7---7---7--7-7-7----7---7---7-----5---7-----------------------|
D-|--7-7-7------7---7---7--7-7-7----7---7---7-----5---7-----------------------|
A-|--5-5-5---x--5-x-5-x-5--5-5-5----5-x-5-x-5-----3---5-----------------------|
E-|---------------------------------------------------------------------------|
                                                                               
                                                                               
E-|---------------------------------------------------------------------------|
B-|---------------------------------------------------12--11------11----------|
G-|--7-7-7----------------------------------------------------12--------------|
D-|--7-7-7--------------------------------------------------------------------|
A-|--5-5-5--------------------------------------------------------------------|
E-|---------------------------------------------------------------------------|
                                                                               
                                                                               
E-|---------------------------------------------------------------------------|
B-|---------------------------------------------------------------------------|
G-|--12-11-9-7-5h7h5h7h5------------------------------------------------------|
D-|---------------------------------------------------------------------------|
A-|---------------------------------------------------------------------------|
E-|---------------------------------------------------------------------------|
   Got me thinkin 'bout .....                                                                            
   
                                                                               
E-|---------------------------------------------------------------------------|
B-|---12-11-9-7-7--9-11-12----------------------------------------------------|
G-|---12-11-9-7-7--9-11-12----------------------------------------------------|
D-|---------------------------------------------------------------------------|
A-|---------------------------------------------------------------------------|
E-|---------------------------------------------------------------------------|
                                                                               

   Before the solo ...                                                                            
E-|---------------------------------------------------------------------------|
B-|---------------------------------------------------------------------------|
G-|---5h3-0-5h3-0-5h3-0-----7h5-0-7h5-0-7h5-0-----5h3-0-5h3-0--etc------------|
D-|---------------------------------------------------------------------------|
A-|---------------------------------------------------------------------------|
E-|---------------------------------------------------------------------------|
                                                                               

    The fast Verse .                                                                           
E-|---------------------------------------------------------------------------|
B-|---------------------------------------------------------------------------|
G-|---9-9-9----7-7-7----5-5-5----4-4-4----5-7---------------------------------|
D-|---9-9-9----7-7-7----5-5-5----4-4-4----5-7---------------------------------|
A-|---7-7-7----5-5-5----3-3-3----2-2-2----3-5---------------------------------|
E-|---------------------------------------------------------------------------|
                                                                               
                                                                              
contact([email protected])
	  

Search Paypal
auto scroll beats size up size down change color hide chords drawings
tab show chords e-chords YouTube Clip e-chords hide all tabs e-chords go to top tab