Iron Maiden

home > Iron Maiden

Brighter than a thousand suns (ver. 2) Tab

Iron Maiden

Difficulty: ExpertExpert

by victor%2Eh

tuner correct add songbook print version text version save to e-mail
chordsukulelecavacokeyboardtabbassdrumsharmonicsflute Guitar Pro
chords

Brighter than a thousand suns (ver. 2)

  		E E E Q E E Q E E E E E E E E Q E E  
E||-----------------------|----------------------|----------------------| 
B||-----------------------|----------------------|----------------------| 
G||*----------------------|-------------4--0-----|--4--0----------------| 
D||*--4--0-----5----2-----|--7----4--------------|-----------7----4-----| 
A||-----------------------|----------------------|----------------------| 
E||---------0----------0--|----------0--------0--|--------0----------0--| 
 
O:43 ETC 
Q E E E E E E E E Q E E Q E E E E E  
-----------------------||-----------------------|----------------------| 
-----------------------||-----------------------|----------------------| 
----------------------*||*----------------------|----------------------| 
--5----2-----4--0-----*||*--2--2-----2----2-----|--2-------------------| 
-----------------------||---2--2--x--2----2--x--|--2-------------0--2--| 
----------0--------0---||---0--0--x--0----0--x--|--0----0--2--3--------| 
 
1:37 ETC 
E E E Q E E Q E E E E E H. E E  
----------------------|-----------------------||----------------------| 
----------------------|-----------------------||----------------------| 
----------------------|--7-------------------*||*--5---------------2--| 
--2--2-----2----2-----|--7-------------------*||*--5------------x--2--| 
--2--2--x--2----2--x--|--5-------------0--2---||---3------------x--0--| 
--0--0--x--0----0--x--|-------0--2--3---------||----------------------| 
 
 
W H. E E W  
-------------------|---------------------|--------------------|| 
-------------------|---------------------|--------------------|| 
--L----------------|---------------------|-------------------*|| 
--L----------------|--5---------------3--|--L----------------*|| 
--L----------------|--5------------x--3--|--L-----------------|| 
-------------------|--3------------x--1--|--L-----------------|| 
 
2:34 ETC 
Q E E E E E E E E E E E E E E Q E E E E E E  
--------------------------|--------------0-----------|-------------0-----------| 
--------------0-----------|-----------0-----0--------|----------------0--------| 
*----------------0--------|--------0-----------0-----|-------2-----------2-----| 
*----------2--------2-----|-----2-----------------2--|----------2--------------| 
--------2--------------3--|--L-----------------------|--0----------------------| 
---0----------------------|--------------------------|----------------------1--| 
 
3:20 ETC 
E E E E E E E E H. E E W  
--------------0------------||----------------------|-------------------| 
-----------------0---------||----------------------|-------------------| 
-----------2--------2-----*||*--9---------------5--|--L----------------| 
--------3--------------3--*||*--9------------x--5--|--L----------------| 
-----3---------------------||---7------------x--3--|--L----------------| 
--L------------------------||----------------------|-------------------| 
 
3:34 
H. E E W E E E E E E E E  
---------------------|--------------------||---------------------------| 
---------------------|--------------------||---------------------------| 
--2------------------|-------------------*||*--------------------------| 
--2------------x--3--|--L----------------*||*--2-----2--4--5--4--2-----| 
--0------------x--3--|--L-----------------||---2--------------------3--| 
------------------1--|--L-----------------||---0--0--------------------| 
 
 
E E E E E E E E E E E Q E E E  
--------------------------|-------------------------| 
--------------------------|-------------------------| 
-----------------------2--|--L--2-----4----4-----5--| 
-----------------------2--|--L--2--x--4----4--x--5--| 
--L--3--0--2--3--2-----0--|--L--0--x--2----2--x--3--| 
--------------------3-----|-------------------------| 
 
4:03 ETC 
E E E Q Q E E E Q E E Q E E Q E E Q  
---------------------------||-------------------------|------------------------| 
---------------------------||-------------------------|------------------------| 
--L--5-----12----11-------*||*--------9----------9----|--------9----------9----| 
--L--5--x--12----11-------*||*--------9----------9----|--------9----------9----| 
--L--3--x--10-----9--------||---------7----------7----|--------7----------7----| 
-----------------------0---||---0--0-------0--0-------|--0--0-------0--0-------| 
 
 
E E Q E E Q E E Q E E Q E E Q E E Q  
------------------------|------------------------|------------------------| 
------------------------|------------------------|------------------------| 
--------5----------5----|--------5----------5----|--------2----------2----| 
--------5----------5----|--------5----------5----|--------2----------2----| 
--3--3--3----3--3--3----|--3--3--3----3--3--3----|--0--0--0----0--0--0----| 
------------------------|------------------------|------------------------| 
 
 
E E Q E E Q E E Q E E Q E E Q E E Q  
------------------------|------------------------|-------------------------|| 
------------------------|------------------------|-------------------------|| 
--------2----------2----|------------------------|------------------------*|| 
--------2----------2----|--------3----------3----|--------3----------3----*|| 
--0--0--0----0--0--0----|--------3----------3----|--------3----------3-----|| 
------------------------|--1--1--1----1--1--1----|--1--1--1----1--1--1-----|| 
 
harmony inbetween previous riff, after 
E E E E E E E E E E E Q E E E  
|---------------------------|--------------------------|| 
|---------------------------|--------------------------|| 
|*--------4--2--0-----------|--------0----------0-----*|| 
|*--2--------------4--2-----|-----2----------4--------*|| 
|---2--------------------3--|--L--------5--------------|| 
|---0--0--------------------|----------------------0---|| 
 
drop harmony, change key: "cold fusion the fury..." 
H. E E H. Q H. E E  
|------------------------|----------------------||-----------------------| 
|------------------------|----------------------||-----------------------| 
|*--14---------------10--|--L------------12----*||--14------------L--12--| 
|*--14------------x--10--|--L------------12----*||--14------------L--12--| 
|---12------------x---8--|--L------------10-----||--12------------L--10--| 
|------------------------|----------------------||-----------------------| 
 
 
H. Q W W  
|---------------------|-------------------|-------------------| 
|---------------------|-------------------|-------------------| 
|--L------------10----|--L----------------|--L----------------| 
|--L------------10----|--L----------------|--L----------------| 
|--L-------------8----|--L----------------|--L----------------| 
|---------------------|-------------------|-------------------| 
 
Solo rhythm 
E S S E S S E S S E S S E S S E S S E S S E S S  
|-------------------------------|------------------------------| 
|-------------------------------|------------------------------| 
|*--4------4------4------4------|--4------4------4------4------| 
|*--4------4------4------4------|--4------4------4------4------| 
|---2--2-2-2--2-2-2--2-2-2--2-2-|--2--2-2-2--2-2-2--2-2-2--3-3-| 
|-------------------------------|------------------------------| 
 
 
E S S E S S E S S E S S W  
|------------------------------|--------------------|| 
|------------------------------|--------------------|| 
|--5------2------4-------------|-------------------*|| 
|--5------2------4------5------|--3----------------*|| 
|--3--0-0-0--2-2-2------5------|--3-----------------|| 
|-------------------3-3-3--1-1-|--1-----------------|| 
 
 
 
 
Duration Legend 
--------------- 
W - whole 
H - half 
Q - quarter 
E - 8th 
S - 16th 
T - 32nd 
X - 64th 
. - note dotted 
|-n-| - n-tuplets 
 
 
Tablature Legend 
---------------- 
L - tied note 
x - dead note 
g - grace note 
(n) - ghost note 
> - accentuded note 
NH - natural harmonic 
AH - artificial harmonic 
TH - tapped harmonic 
SH - semi harmonic 
PH - pitch harmonic 
h - hammer on 
p - pull off 
b - bend 
br - bendRelease 
pb - preBend 
pbr - preBendRelease 
brb - bendReleaseBend 
\n/ - tremolo bar dip 
\n - tremolo bar dive 
-/n - tremolo bar Release up 
/n\ - tremolo bar inverted dip 
/n - tremolo bar return 
-\n - tremolo bar Release down 
S - shift slide 
s - legato slide 
/ - slide into from below or out of upwards 
\ - slide into from above or out of downwards 
~ - vibrato 
W - wide vibrato 
tr - trill 
TP - tremolo picking 
T - tapping 
S - slap 
P - pop 
< - fade in 
^ - brush up 
v - brush down 
 

	  

Full key step upFull key step up
Half key step upHalf key step up
Half key step downHalf key step down
Full key step downFull key step down
Search Paypal
auto scroll beats size up size down change color hide chords drawings
tab show chords e-chords YouTube Clip e-chords hide all tabs e-chords go to top tab