Black Sabbath

home > Black Sabbath

Crazy Train Tab

Black Sabbath

Difficulty: AdvancedAdvanced

by slashaddict

tuner correct add songbook print version text version save to e-mail
chordsukulelecavacokeyboardtabbassdrumsharmonicsflute Guitar Pro
chords

Crazy Train

  		        standard tuning 
 
Bass 
---------------------------------------------------------------- 
---------------------------------------------------------------- 
---------------------------------------------------------------- 
-----------------7-7-------------------------------------------- 
--4-4--7-7--2-2--5-5--2-2--------------------------------------- 
--2-2--5-5--0-0-------0-0--------------------------------------- 
 
Then pick slide into the intro 
 
Riff1(A) 
---------------------------------------------------------------- 
---------------------------------------------------------------- 
---------------------------------------------------------------- 
---------------------------------------------------------------- 
------4---5---4---2-------2------------------------------------- 
--2-2---2---2---2---5-4-5---5-4-0------------------------------- 
 
Or you can play it a different way which has more ting to it (alot ezier to) 
 
Riff1(B) 
 
---------------------------------------------------------------- 
---------------------------------------------------------------- 
---------------------------------------------------------------- 
---------------------------------------------------------------- 
------4---5---4----2-0----0-2-0--------------------------------- 
--2-2---2---2---2------4--------4-0----------------------------- 
 
after that part he goes 
 
--------| 
--------| 
--------| 
---7--9-| 
---5--7-| 
--------|     

	  

Search Paypal
auto scroll beats size up size down change color hide chords drawings
tab show chords e-chords YouTube Clip e-chords hide all tabs e-chords go to top tab