Black Sabbath

home > Black Sabbath

Black Sabbath Tab

Black Sabbath

Difficulty: ExpertExpert

by diewithme

tuner correct add songbook print version text version save to e-mail
chordsukulelecavacokeyboardtabbassdrummharmonicsflute Guitar Pro
chords

Black Sabbath

  		Versão 1
-======-

***do album: We Sold Our Soul For Rock'n Roll***
----------------------------------------------------
Note:
h = hammer on
p = pull off
b = bend
 / = slides
~ = tremolo
() = fantasm note
----------------------------------------------------

Intro:............................................Repeat 4x...:
|------------------------|-------------------|----------------|
|------------------------|-------------------|----------------|
|------------------------|-------------------|----------------|
|-0-------5--------------|-0-------5---------|----------------|
|--------------4h5p4h5p4-|---------------4---|----------------|
|-3----------------------|-3-----------------|----------------|

Part two:
|------------------------------|------------------------------|
|------------------------------|------------------------------|
|------------------------------|------------------------------|
|---------------5--------------|-------------5----------------|
|---------------------------4--|--------------------------4---|
|-3----------------------------|-3----------------------------|

Guitar con't previous two bar pattern:

-> Fig-ure in black_____  which points__  at me,_______________
   Big____ black shape___ with eyes___    of fire,_____________

-> turn'round    quick     and start    to    run,_____________
   tell - ing    peo-ple     their__    de - sire,_____________

                                           |    Intro part:   |
-> Find out  I'm____   the  cho - sen   one_____   yeah._______
                                                   |Part two: | 
   Sa - tan's  sit  -  thing there he's smil-       -ing_______

-> Watch  -  es   those    flames_________ get  high - er and 
   high - er               Oh no__________ please God help me.

              :.................................Repeat 1x.....:
|-------------|----------------------------|------------------|
|-0-----------|----------------------------|------------------|
|-0-----------|----------------------------|------------------|
|-0-----------|-----------0-1----0-------0-|------------------|
|-------------|-------1-3-----3-----1-3----|------------------|
|-3-----------|-3-3-3----------------------|------------------|
                             :.........Repeat 1x..............:
|----------------------------|--------------------------------|
|----------------------------|--------------------------------|
|----------------------------|--------------------------------|
|----------------------------|------------0-1-----0-------0---|
|-5--5--5---5--5---5---5---5-|--------1-3------3-----1-3------|
|-3--3--3---3--3---3---3---3-|-3-3-3--------------------------|

|----------------------------|--------------------------------|
|----------------------------|--------------------------------|
|----------------------------|--------------------------------|
|----------------------------|--------------------------------|
|-5--5--5--5--5--5--5--5--5--|-5--5--5--5--5--5--5--5--5------|
|-3--3--3--3--3--3--3--3--3--|-3--3--3--3--3--3--3--3--3------|

Guitars con't previous 1 bar pattern

-> Is  it  the______    end______    my___    friend?_________

-> Sa  -  tan's  come  a  -    round_____   the   bend._______

-> Peo  -   ple   run - nin'___  'cause____  they're scared.__

-> You peo - ple bet - ter__  go____ and__ be-ware___      no_
   no__        please_        no.__ 

|-----------|-----------|----------|--------------------------|
|-----------|-----------|----------|--------------------------|
|-----------|-0---------|----------|-0------------------------|
|-----------|-0---------|----------|-0--------5p3-------------|
|-5---------|-----------|-5--------|----------------5---------|
|-3---------|-3---------|-3--------|-3------------------------|

|-----------|-3---------|----------|-3------------------------|
|-----------|-3---------|----------|-3------------------------|
|-4---------|-3---------|-4--------|-3------------------------|
|-5---------|-3---------|-5--------|-3------------------------|
|-5---------|-1---------|-5--------|-1------------------------|
|-3---------|-----------|-3--------|--------------------------|

Solo:
:
|-----------------------|-------------|-----------------------|
|-----------------------|-------------|----------------3------|
|-----------------------|-------------|-3--------5b-----------|
|-5-----(5)b----5---5---|-3------3h5--|-----------------------|
|-----------------------|-------------|-----------------------|
|-----------------------|-------------|-----------------------|

|---------------------------3----|----------------------------|
|-3-----------------3-------3----|----3------6------8----8b---|
|--------------5b----------------|-5b----8b-----10b-----------|
|--------------------------------|----------------------------|
|--------------------------------|----------------------------|
|--------------------------------|----------------------------|

|---------15-------15------|------------------18b------18b----|
|------15-----18b----------|-18b---18b------15----------------|
|-17b----------------------|----------------------------------|
|--------------------------|----------------------------------|
|--------------------------|----------------------------------|
|--------------------------|----------------------------------|

|-15--18p15----18p15----|-18b----15h18p15-------15-15------15-|
|-----------18-------18-|----------------18--18-------18b-----|
|-----------------------|-------------------------------------|
|-----------------------|-------------------------------------|
|-----------------------|-------------------------------------|
|-----------------------|-------------------------------------|

|-15--------------15--------15--------15--|-------15--------15|
|----18-15-----15--------15--------15-----|----15--------15---|
|----------17b-------17b-------17b--------|-17b------17b------|
|-----------------------------------------|-------------------|
|-----------------------------------------|-------------------|
|-----------------------------------------|-------------------|

|--------15-------15-|----------------15----------------------|
|-----15-------15----|-15~---------15---------15--18b----(18)-|
|-17b------17b-------|-------1417b-------17-18----------------|
|--------------------|----------------------------------------|
|--------------------|----------------------------------------|
|--------------------|----------------------------------------|

|-----------------------18b--|----(18)-18p15-----18b--15h18p15|
|------18b------(18)---------|--------------------------------|
|-15-----------------15------|---------------(17)-------------|
|----------------------------|--------------------------------|
|----------------------------|--------------------------------|
|----------------------------|--------------------------------|

|-----15h18p15----18p15----15h18p15h18-15h18p15h18-15h18p15h18|
|-18-----------18-------18------------------------------------|
|-------------------------------------------------------------|
|-------------------------------------------------------------|
|-------------------------------------------------------------|
|-------------------------------------------------------------|

|-15h18p15h18-18b---18b----(18)-|-18p15-----------15-15-------|
|-------------------------------|-------18-18-18b-------1815--|
|-------------------------------|-----------------------------|
|-------------------------------|-----------------------------|
|-------------------------------|-----------------------------|
|-------------------------------|-----------------------------|

|----------------|---------15---------------------------------|
|----------------|------15----18p15---------------------------|
|-17---15b~~-----|-17b--------------17---15b~~----------------|
|----------------|------------------------------17p15h17------|
|----------------|--------------------------------------------|
|----------------|--------------------------------------------|
                                                              :
|-----------------15--------15--------15-|--------------------|
|--------------15--------15--------15----|-18b---18b----18b---|
|-------15-17b-------17b-------17b-------|--------------------|
|-15h17----------------------------------|--------------------|
|----------------------------------------|--------------------|
|----------------------------------------|--------------------|

|---------------------|------------------|--------------------|
|--0------------------|--3---------------|-0--0-0-0-0-0-0-0---|
|--0------------------|--3---------------|-0--0-0-0-0-0-0-0---|
|--0------------------|--3---------------|-0--0-0-0-0-0-0-0---|
|---------------------|------------------|--------------------|
|--3------------------|--3---------------|-3--3-3-3-3-3-3-3---|

|-3-----3-3-3-3-----3-3-3--|----------------------------------|
|-3-----3-3-3-3-----3-3-3--|----------------------------------|
|-3-----3-3-3-3-----3-3-3--|-4--------------------------------|
|-3-----3-3-3-3-----3-3-3--|-5--------------------------------|
|--------------------------|-5--------------------------------|
|--------------------------|-3--------------------------------|

|-3--3--3-3--------|---------------------|-3-3-3-3-3-3-3-3----|
|-3--3--3-3--------|---------------------|-3-3-3-3-3-3-3-3----|
|-4--4--4-4--------|-4-4-4---4-4--4-4-4--|-3-3-3-3-3-3-3-3----|
|-5--5--5-5--------|-5-5-5---5-5--5-5-5--|-3-3-3-3-3-3-3-3----|
|-5--5--5-5--------|-5-5-5---5-5--5-5-5--|-1-1-1-1-1-1-1-1----|
|-3--3--3-3--------|-3-3-3---3-3--3-3-3--|--------------------|

|----------------------------|--------------------------------|
|----------------------------|--------------------------------|
|-4--------------------------|--------4-4-4-4-----------------|
|-5--------------------------|--------5-5-5-5-----------------|
|-5--------------------------|--------5-5-5-5-----------------|
|-3--------------------------|--------3-3-3-3-----------------|


Transcrita por F.A.M.O
[email protected]

_______________________________________________________
Contribuição: Franklin A. Macedo de Oliveira([email protected])

   
    
    



_________________________________________________________________

Versão 2
-======-


Words and Music by Iommi, Ward, Butler, Osbourne
Transcribed by [email protected]

Gtr I (E A D G B E) - 'Untitled'
Gtr II (E A D G B E) - 'Untitled'

   Intro
    Q=70
   4/4
    Gtr I
    H    H      W             H    H      W
||------------|-------------|-----------|-------||
||o-----------|-------------|-----------|------o||
||------------|-------------|-----------|-------||
||-------5----|-------------|------5----|-------||
||o-5---------|-4tr5--------|-5---------|-4----o||
||--3---------|-------------|-3---------|-------||


   1st Verse
    H    H      W        10x     H    H      W             H    H      W
||------------|-----------||-||------------|-------------|-----------|-------||
||o-----------|----------o||-||o-----------|-------------|-----------|------o||
||-------0----|-----------||-||------------|-------------|-----------|-------||
||------------|-----------||-||-------5----|-------------|------5----|-------||
||o-----------|-4--------o||-||o-5---------|-4tr5--------|-5---------|-4----o||
||--3---------|-----------||-||--3---------|-------------|-3---------|-------||


   2nd Verse
    H    H      W        10x     H    H      W             H    H      W
||------------|-----------||-||------------|-------------|-----------|-------||
||o-----------|----------o||-||o-----------|-------------|-----------|------o||
||-------0----|-----------||-||------------|-------------|-----------|-------||
||------------|-----------||-||-------5----|-------------|------5----|-------||
||o-----------|-4--------o||-||o-5---------|-4tr5--------|-5---------|-4----o||
||--3---------|-----------||-||--3---------|-------------|-3---------|-------||


                                               3rd Verse
            Q.=120
               12/8
  W             E E E E E E E E E E E E  4x     E E E E E E E E E E E E  16x
|-----------||---------------------------||-||----------------------------||
|-----------||o-------------------------o||-||o--------------------------o||
|-----------||---------------------------||-||----------------------------||
|-----------||---------------------------||-||----------------------------||
|-5---------||o---------3-5-6-3-5---3-5-o||-||o---------3-5-6-3-5---3-5--o||
|-3---------||--3-3-3-6-----------6------||-||--3-3-3-6-----------6-------||


   E E E E E E E E E E E E   E E E E E E E E E E E E
||-3-3-3-3-3-3-3-3-3-3-3-3-|-3-3-3-3-3-3-3-3-3-3-3-3--|
||-3-3-3-3-3-3-3-3-3-3-3-3-|-3-3-3-3-3-3-3-3-3-3-3-3--|
||-3-3-3-3-3-3-3-3-3-3-3-3-|-3-3-3-3-3-3-3-3-3-3-3-3--|
||-5-5-5-5-5-5-5-5-5-5-5-5-|-3-3-3-3-3-3-3-3-3-3-3-3--|
||-5-5-5-5-5-5-5-5-5-5-5-5-|--------------------------|
||-3-3-3-3-3-3-3-3-3-3-3-3-|--------------------------|


  E E E E E E E E E E E E   E  E E E E E E  E E E E E
|-3-3-3-3-3-3-3-3-3-3-3-3-|-3--3-3-3-3-3-3--3-3-3-3-3-||
|-3-3-3-3-3-3-3-3-3-3-3-3-|-3--3-3-3-3-3-3--3-3-3-3-3-||
|-3-3-3-3-3-3-3-3-3-3-3-3-|-3--3-3-3-3-3-3--3-3-3-3-3-||
|-2-2-2-2-2-2-2-2-2-2-2-2-|-1--1-1-1-1-1-1--1-1-1-1-1-||
|-------------------------|---------------------------||
|-------------------------|---------------------------||
|
| Gtr II
| W                         H.           Q.     E E E
|-------------------------|---------------------------||
|-------------------------|---------------------------||
|-------------------------|---------------------------||
|-------------------------|---------------------5-3---||
|-------------------------|-------------------------5-||
|-------------------------|---------------------------||


 Guitar Solo
                                                         ~~~
  H.      +Q.   Q  E   H.      Q  E Q.     H.      +Q.   Q.
|--------------------|-------------------|---------------------|
|--------------------|-------------------|---------------3-----|
|--------------------|-------------------|-3-------(3)---5b7---|
|-5-------(5)---5--5-|-3----------3h5----|---------------------|
|--------------------|-------------------|---------------------|
|--------------------|-------------------|---------------------|


  H.       Q.    Q.     Q.    Q.      Q.      Q.
|----------------3----|------------------------------|
|-3--------3-----3----|-3-----6-------8------10------|
|-5b7------5b7--------|-5b7---8b10---10b12---12b14---|
|---------------------|------------------------------|
|---------------------|------------------------------|
|---------------------|------------------------------|


   +Q    E     E  Q   Q.   Q.
|-------------15-----15---------|
|-(10)--15----15-15-------------|
|-(12)--17b19-------------------|
|-------------------------------|
|-------------------------------|
|-------------------------------|


   Q.      Q.       +Q    E  Q.        H.         E  E  E  E  E  E
|---------------------------18b20---|-18b20------18p15----18p15----|
|-18b20---18b20====(18)--15---------|------------------18-------18-|
|-----------------------------------|------------------------------|
|-----------------------------------|------------------------------|
|-----------------------------------|------------------------------|
|-----------------------------------|------------------------------|


   Q.      a  E  E  E  E     E     E     Q.
|-18b20---15h18p15-------------------------------|
|------------------18-18b20-18b20-18b20-18b20----|
|------------------------------------------------|
|------------------------------------------------|
|------------------------------------------------|
|------------------------------------------------|


   E  E  E  E     E  E  E     E  E  E     E  E
|-15----------------15----------15----------15-|
|----18-15-------15----------15----------15----|
|----------17b19-------17b19-------17b19-------|
|----------------------------------------------|
|----------------------------------------------|
|----------------------------------------------|


   E     E  E  E     E  E  E     E  E  E     E  E    H.         E     E  E  E     E  E
|----------15----------15----------15----------15-|---------------------15----------15-|
|-------15----------15----------15----------15----|------------------15----------15----|
|-17b19-------17b19-------17b19-------17b19-------|-17b19------17b19-------17b19-------|
|-------------------------------------------------|------------------------------------|
|-------------------------------------------------|------------------------------------|
|-------------------------------------------------|------------------------------------|


   Q      +E   Q   E      +Q    +E   Q   E       +Q.    a  E  E  E  Q.      a  E  E  E
|---------------------------------------18b20-|-(18)---15h18-15----18b20---15h18-15----|
|-18b20r=(18)-----18b20==(18)r=(18)-----------|-----------------18------------------18-|
|-------------15--------------------15--------|----------------------------------------|
|---------------------------------------------|----------------------------------------|
|---------------------------------------------|----------------------------------------|
|---------------------------------------------|----------------------------------------|


   a  E  E  E  a  E  E  E  H.            +H.           Q.      Q.
|-15h18-------15h18-15----18tr15------|-(18tr15)------18b20---18b20----|
|-------15-------------18-------------|--------------------------------|
|----------18-------------------------|--------------------------------|
|-------------------------------------|--------------------------------|
|-------------------------------------|--------------------------------|
|-------------------------------------|--------------------------------|


                                   ~~~                          ~~~
   a  S  S  E  E  Q.      E  E  E  Q.      E     E  E  E  E  E  Q.    E  E  E
|-15h18p15------------------------------|----------15-------------------------|
|----------18-15-18b20---18-15-14-------|-------15----18-15-------------------|
|---------------------------------15----|-17b19-------------17-15-------------|
|---------------------------------------|----------------------------17-15----|
|---------------------------------------|----------------------------------17-|
|---------------------------------------|-------------------------------------|


   E  E  E  Q      E  Q      E  Q      E
|-----------------15--------15--------15--|
|-----------------15--------15--------15--|
|-------15-17b19-----17b19-----17b19------|
|-15h17-----------------------------------|
|-----------------------------------------|
|-----------------------------------------|


                   ~~~~~~
   Q.      Q.      Q.      Q.
|-------------------------------|
|-18b20---18b20---18b20--------|
|-------------------------------|
|-------------------------------|
|-------------------------------|
|-------------------------------|


    Q.   Q.   Q.   Q.     Q.   Q.   Q.   Q.    3x
||----------------------|----------------------||
||o---------------------|---------------------o||
||----------------------|-3----3----3----3-----||
||--5----5----5----5----|-3----3----3----3-----||
||o-5----5----5----5----|-1----1----1----1----o||
||--3----3----3----3----|-1----1----1----1-----||


  E E E E E E E E E E E E   E E E E E E E E E E E E
|-------------------------|-------------------------|
|-------------------------|-------------------------|
|-------------------------|-------------------------|
|-5-----5-5-5-5-----5-5-5-|-3-----3-3-3-3-----3-3-3-|
|-5-----5-5-5-5-----5-5-5-|-3-----3-3-3-3-----3-3-3-|
|-3-----3-3-3-3-----3-3-3-|-1-----1-1-1-1-----1-1-1-|


  E E E Q.   H.        E E E E E E H.
|--------------------|-------------------*|
|--------------------|-------------------*|
|--------------------|-------------------*|
|-5------------------|-5-5-5-5-----------*|
|-5------------------|-5-5-5-5-----------*|
|-3------------------|-3-3-3-3-----------*|


Duration Legend
---------------
W - whole; H - half; Q - quarter; E - 8th; S - 16th; T - 32nd; X - 64th; a - acciaccatura
+ - note tied to previous; . - note dotted; .. - note double dotted
Uncapitalized letters represent notes that are staccato (1/2 duration)
Irregular groupings are notated above the duration line
Duration letters will always appear directly above the note/fret number it represents the
duration for.  Duration letters with no fret number below them represent rests.  Multi-
bar rests are notated in the form Wxn, where n is the number of bars to rest for.  Low
melody durations appear below the staff

Tablature Legend
----------------
 h   - hammer-on
 p   - pull-off
 b   - bend
 pb  - pre-bend
 r   - bend release (if no number after the r, then release immediately)
 /  - slide into or out of (from/to "nowhere")
 s   - legato slide
 S   - shift slide
  - natural harmonic
n  - artificial harmonic
n(n) - tapped harmonic
 ~   - vibrato
 tr  - trill
 T   - tap
 TP  - trem. picking
 PM  - palm muting

/  - tremolo bar dip; n = amount to dip
 
  - tremolo bar down
 n/  - tremolo bar up
/n  - tremolo bar inverted dip
 =   - hold bend; also acts as connecting device for hammers/pulls
 <>  - volume swell (louder/softer)
 x   - on rhythm slash represents muted slash
 o   - on rhythm slash represents single note slash
	  

Search Paypal
auto scroll beats size up size down change color hide chords drawings
tab show chords e-chords YouTube Clip e-chords hide all tabs e-chords go to top tab