Iron Maiden

home > Iron Maiden

Prodigal Son (ver. 2) Tab

Iron Maiden

Difficulty: ExpertExpert

by wickedman

tuner correct add songbook print version text version save to e-mail
chordsukulelecavacokeyboardtabbassdrumsharmonicsflute Guitar Pro
chords

Prodigal Son (ver. 2)

  		Introdução 
(Toque 2 vezes) 
 
  B                                      A 
|-----------------|-----------------0--|-----------------|-----------------0--| 
|-------4-(4)-0---|---------4-(4)-0----|-------2-(2)-0---|---------2-(2)-0----| 
|-----4-----------|-------4------------|-----2-----------|-------2------------| 
|---4-------------|-----4--------------|---2-------------|-----2--------------| 
|-2---------------|--2-----------------|-0---------------|--0-----------------| 
|-----------------|--------------------|-----------------|--------------------| 
 
 
  G                                      Esus4   E        Esus4    E 
|-----------------|-----------------0--|---------------|-----------------| 
|-------1-(1)-0---|---------1-(1)-0----|---------------|-----------------| 
|-----0-----------|-------0------------|-------2-1-----|---------2-1-----| 
|---0-------------|-----0--------------|-----2-2----2--|-------2-2----2--| 
|-----------------|--------------------|---2-----------|-----2-----------| 
|-3---------------|--3-----------------|-0-------------|--0--------------| 
 
 
 
Riff 1 
(Toque 2 vezes) 
 
  B         Bsus4           B                       A         Asus4           A 
|-7-7-7-7-7-7-7-7-7-7-|--7--7-7-7-7-7--7-7----7---|-5-5-5-5-5-5-5-5-5-5-|--5--5-5-5-5-5-5-5-5-| 
|-7-7-7-7-7-7-7-7-7-7-|--7--7-7-7-7-7--7-7----7---|-5-5-5-5-5-5-5-5-5-5-|--5--5-5-5-5-5-5-5-5-| 
|-8-8-8-8-8-9-9-9-9-9-|--9--8-8-8-8-8--8-8----8---|-6-6-6-6-6-7-7-7-7-7-|--7--6-6-6-6-6-6-6-6-| 
|-9-9-9-9-9-9-9-9-9-9-|--9--9-9-9-9-9--9-9----9---|-7-7-7-7-7-7-7-7-7-7-|--7--7-7-7-7-7-7-7-7-| 
|-9-9-9-9-9-9-9-9-9-9-|--9--9-9-9-9-9--9-9----9---|-7-7-7-7-7-7-7-7-7-7-|--7--7-7-7-7-7-7-7-7-| 
|-7-7-7-7-7-7-7-7-7-7-|--7--7-7-7-7-7--7-7----7---|-5-5-5-5-5-5-5-5-5-5-|--5--5-5-5-5-5-5-5-5-| 
| 
| Esta parte é tocada pelo baixo 
|-------------------------------------11-9--------|-----------------------------7-5-----7-5---| 
|------------------------------------------11-9-7-|---------------------------------7-------7-| 
|-------------------------------------------------|-------------------------------------------| 
|-------------------------------------------------|-------------------------------------------| 
 
 
  G         Gsus4           G                     Esus4     E 
|-3-3-3-3-3-3-3-3-3-3-|--3--3-3-3-3-3-3-----3-3-|-0-0-0-0-0-0-0-0-0-0-|-0-0-0-0-0-0-0-0-0-0-| 
|-3-3-3-3-3-3-3-3-3-3-|--3--3-3-3-3-3-3-----3-3-|-0-0-0-0-0-0-0-0-0-0-|-0-0-0-0-0-0-0-0-0-0-| 
|-4-4-4-4-4-5-5-5-5-5-|--5--4-4-4-4-4-4-----4-4-|-2-2-2-2-2-1-1-1-1-1-|-1-1-1-1-1-1-1-1-1-1-| 
|-5-5-5-5-5-5-5-5-5-5-|--5--5-5-5-5-5-5-----5-5-|-2-2-2-2-2-2-2-2-2-2-|-2-2-2-2-2-2-2-2-2-2-| 
|-5-5-5-5-5-5-5-5-5-5-|--5--5-5-5-5-5-5-----5-5-|-2-2-2-2-2-2-2-2-2-2-|-2-2-2-2-2-2-2-2-2-2-| 
|-3-3-3-3-3-3-3-3-3-3-|--3--3-3-3-3-3-3-----3-3-|-0-0-0-0-0-0-0-0-0-0-|-0-0-0-0-0-0-0-0-0-0-| 
 
 
 
Riff 2 
 
     G A E                                (x3) 
||-------0-0-0-0-0-|-0-0-0-0-0-0-0-0-0-0---|| 
||o------0-0-0-0-0-|-0-0-0-0-0-0-0-0-0-0--o|| 
||-------1-1-1-1-1-|-1-1-1-1-1-1-1-1-1-1---|| 
||---5-7-2-2-2-2-2-|-2-2-2-2-2-2-2-2-2-2---|| 
||o--5-7-2-2-2-2-2-|-2-2-2-2-2-2-2-2-2-2--o|| 
||---3-5-0-0-0-0-0-|-0-0-0-0-0-0-0-0-0-0---|| 
 
 
  G E A                                      G A E 
                                                                                  (x2) mais lento 
|---0-5-5-5-5-5-|-5-5-5-5-5-5---5-5-5-5-||-------0-0-0-0-0-|-0-0-0-0-0-0-0-0-0-0---||--0-0-0-0-0--| 
|---0-5-5-5-5-5-|-5-5-5-5-5-5---5-5-5-5-||o------0-0-0-0-0-|-0-0-0-0-0-0-0-0-0-0--o||--0-0-0-0-0--| 
|---1-6-6-6-6-6-|-7-6-6-6-6-7---6-6-6-6-||-------1-1-1-1-1-|-1-1-1-1-1-1-1-1-1-1---||--1-1-1-1-1--| 
|-5-2-7-7-7-7-7-|-7-7-7-7-7-7---7-7-7-7-||---5-7-2-2-2-2-2-|-2-2-2-2-2-2-2-2-2-2---||--2-2-2-2-2--| 
|-5-2-7-7-7-7-7-|-7-7-7-7-7-7---7-7-7-7-||o--5-7-2-2-2-2-2-|-2-2-2-2-2-2-2-2-2-2--o||--2-2-2-2-2--| 
|-3-0-5-5-5-5-5-|-5-5-5-5-5-5---5-5-5-5-||---3-5-0-0-0-0-0-|-0-0-0-0-0-0-0-0-0-0---||--0-0-0-0-0--| 
 
 
 
Riff 3 
 
  Emadd2                                           G         Gsus4        G 
|-2-2-2-2-2-2-2-2-2-2-|--2--2-2-2-2-2--2-2--2-2-|--3-3-3-3-3-3-3-3-3-3-|--3-3-3-3-3-3-3-3--3-3-| 
|-0-0-0-0-0-0-0-0-0-0-|--0--0-0-0-0-0--0-0--0-0-|--3-3-3-3-3-3-3-3-3-3-|--3-3-3-3-3-3-3-3--3-3-| 
|-0-0-0-0-0-0-0-0-0-0-|--0--0-0-0-0-0--0-0--0-0-|--4-4-4-4-4-5-5-5-5-5-|--4-4-4-4-4-4-4-4--4-4-| 
|-2-2-2-2-2-2-2-2-2-2-|--2--2-2-2-2-2--2-2--2-2-|--5-5-5-5-5-5-5-5-5-5-|--5-5-5-5-5-5-5-5--5-5-| 
|-2-2-2-2-2-2-2-2-2-2-|--2--2-2-2-2-2--2-2--2-2-|--5-5-5-5-5-5-5-5-5-5-|--5-5-5-5-5-5-5-5--5-5-| 
|-0-0-0-0-0-0-0-0-0-0-|--0--0-0-0-0-0--0-0--0-0-|--3-3-3-3-3-3-3-3-3-3-|--3-3-3-3-3-3-3-3--3-3-| 
 
 
   A         Asus4        A                      C                     D 
|--5-5-5-5-5-5-5-5-5-5-|--5-5-5-5-5-5-5-5-5-5--|-0-0-0-0-0-0-0-0-0-0-|-2--------------------| 
|--5-5-5-5-5-5-5-5-5-5-|--5-5-5-5-5-5-5-5-5-5--|-1-1-1-1-1-1-1-1-1-1-|-3--------------------| 
|--6-6-6-6-6-7-7-7-7-7-|--6-6-6-6-6-6-6-6-6-6--|-0-0-0-0-0-0-0-0-0-0-|-2-----0---0-0-0-2-0--| 
|--7-7-7-7-7-7-7-7-7-7-|--7-7-7-7-7-7-7-7-7-7--|-2-2-2-2-2-2-2-2-2-2-|-0---2---2------------| 
|--7-7-7-7-7-7-7-7-7-7-|--7-7-7-7-7-7-7-7-7-7--|-3-3-3-3-3-3-3-3-3-3-|----------------------| 
|--5-5-5-5-5-5-5-5-5-5-|--5-5-5-5-5-5-5-5-5-5--|---------------------|----------------------| 
 
 
 
Versos sobre Riff 3 
Nota: Atente para a variação do Riff 3 no final dos versos. 
 
Emadd9                              G         Gsus4  G 
      Listen to me Lamia, listen to what I've got to say 
A     Asus4     A                  C          D 
 I've got these feelings, and they won't go away 
 
Emadd9                                    G        Gsus4 G 
      I've got these fears inside that'll bring me to my knees 
A   Asus4   A            C                 D 
 Oh help me Lamia or I'm sure I'll die, oh please 
 
Emadd9                        G         Gsus4     G 
      I feel unsettled, now I know that I've done wrong 
A            Asus4       A                 C             D 
 I've messed around with mystic things and magic for too long 
 
Emadd9                                G         Gsus4  G 
      I feel I'm being paid with this nightmare inside me 
A            Asus4 A                   C                    D 
 The devil's got a hold on my soul and he just won't let me be 
                                                           
							  |-2-2-2-2-2-2-2-2-2-2-| 
                                                          |-3-3-3-3-3-3-3-3-3-3-| 
                                                          |-2-2-2-2-2-2-2-2-2-2-| 
                                                          |-0-0-0-0-0-0-0-0-0-0-| 
                                                          |---------------------| 
                                                          |---------------------| 
 
 
 
Versos sobre Riff 2 
Nota: dessa vez, não toque a parte mais lenta do final do riff. 
 
G A E     G  A  E         G    A  E 
      I'm on my knees, oh help me please 
    G  E  A      G    A  E      G A E 
I'm on my knees, help me please 
 
 
 
Refrão 
Nota: o RITMO no Refrão é o mesmo que no Riff 3. Ouça a música. 
 
 
A  B     C      D           E  Esus4 E  Esus4 E 
Oh Lamia please try to help me 
    A             B          C           B            D  Dsus4 D  Dsus4 D 
The devil's got a hold of my soul and he won't let me be 
A     B             C 
Lamia I've got this curse, 
    B          E 
I'm turning to bad 
    A             B          C              D          E   Emadd2  E  Emadd2 
The devil's got a hold of my soul, and it's driving me mad 
 
 
 
Solo 
 
 
Repete Introdução 
 
 
Repete Riff 1 
 
 
Repete Riff 2 
 
 
Refrão 
Nota: há uma variação nos acordes. 
 
 
A  B     C      D           E 
Oh Lamia please try to help me 
    A             B          C           B            D  Dsus4 D  Dsus4 D 
The devil's got a hold of my soul and he won't let me be 
A     B             C 
Lamia I've got this curse, 
    B          E 
I'm turning to bad 
    A             B          C              D          E   Emadd2  E  Emadd2 
The devil's got a hold of my soul, and it's driving me mad 
 
 
 
Final 
 
  B                                      A 
|-----------------|-----------------0--|-----------------|-----------------0--| 
|-------4-(4)-0---|---------4-(4)-0----|-------2-(2)-0---|---------2-(2)-0----| 
|-----4-----------|-------4------------|-----2-----------|-------2------------| 
|---4-------------|-----4--------------|---2-------------|-----2--------------| 
|-2---------------|--2-----------------|-0---------------|--0-----------------| 
|-----------------|--------------------|-----------------|--------------------| 
 
 
  G                                      Esus4   E        Esus4            E             A       B         E 
|-----------------|-----------------0--|---------------|-----------------|-------|-------5---5---7---7-|-^-7----| 
|-------1-(1)-0---|---------1-(1)-0----|---------------|-----------------|-------|---------5-------7---|-^-9----| 
|-----0-----------|-------0------------|-------2-1-----|---------2-1-----|-^1----|-(1)---6-------8-----|-^-9----| 
|---0-------------|-----0--------------|-----2-2----2--|-------2-2----2--|-^2----|-(2)-----------------|-^-9----| 
|-----------------|--------------------|---2-----------|-----2-----------|-^2----|-(2)-----------------|--------| 
|-3---------------|--3-----------------|-0-------------|--0--------------|-^0----|-(0)-----------------|--------| 
 
 

	  

Full key step upFull key step up
Half key step upHalf key step up
Half key step downHalf key step down
Full key step downFull key step down
Search Paypal
auto scroll beats size up size down change color hide chords drawings
tab show chords e-chords YouTube Clip e-chords hide all tabs e-chords go to top tab