Ozzy Osbourne

home > Ozzy Osbourne

Crazy Train Tab

Ozzy Osbourne

Difficulty: AdvancedAdvanced

tuner correct add songbook print version text version save to e-mail
chordsukulelecavacokeyboardtabbassdrummharmonicsflute Guitar Pro
chords

Crazy Train

Year: 1980 - Album: Prince of Darkness

  		introdução 



 e|---------------------------------0-0-------------------------| 
 B|----------------------------3-3--0-0-------------------------| 
 G|-11-11---------------11-11--2-2--1-1--11-11------------------| 
 D|-11-11--2------------11-11--0-0-------11-11--2---------------| 
 A|-9--9---0-------2----9--9-------------9--9---0-------2-------| 
 E|----------4--2--0--4---------------------------4--2--0--4----| 



 e|------0-0----12----------------------------------------------| 
 B|-3-3--0-0-12b14----------------------------------------------| 
 G|-2-2--1-1-------11b13--11b13--11b13-11b13-11b13--11b13--11b13| 
 D|-0-0---------------------------------------------------------| 
 A|-------------------------------------------------------------| 
 E|-------------------------------------------------------------| 



 e|-------------------------------------------------------------| 
 B|-------------------------------------------------------------| 
 G|--4b6r4(tr)--------------------------------------------------| 
 D|-------------------------------------------------------------| 
 A|--------------0-----------4---5---4---2-------2--------------| 
 E|-----------------/\---2-2---2---2---2---5-4-5---5-4-0--------| 



 e|-------------------------------------------------------------| 
 B|-------------------------------------------------------------| 
 G|-------------------------------------------------------------| 
 D|-------------------------------------------------------------| 
 A|-----------4----5----4-----2---------2-----------------------| 
 E|-----2--2----2----2-----2----5--4--5----5--4--0--------------| 



 e|--------------------------------------------------------0----| 
 B|-----------------------------------------------------3--0----| 
 G|-----------------------------------------------------2--1----| 
 D|-----------------------------------------------------0-------| 
 A|-----4---5---4---2-------2------------4---5---4--------------| 
 E|-2-2---2---2---2---5-4-5---5-4-0--2-2---2---2---2------------| 



 e|-------------------------------------------------------------| 
 B|-----5---------5---------3---------2---------5---------5-----| 
 G|-----6---------4---------2---------2---------6---------4-----| 
 D|-----7---------6---------4---------0---------7---------6-----| 
 A|-0-0---0-0-0-0---0-0-0-0---0-0-0-0-------0-0---0-0-0-0-------| 
 E|-------------------------------------3/4---------------------| 



 e|-------------------------------------------------------------| 
 B|----------3--------------------------------------------------| 
 G|----------2---------2--4p20----------------------------------| 
 D|----------4---------2--------4p20----------------------------| 
 A|--0-0-0-0---0-0-0-0-0--------------4p20----------------------| 
 E|-------------------------------------------------------------| 




 VERSO 1 (INTEIRO) 


 e|-------------------------------------------------------------| 
 B|---------5-----------5-----------3---------------------------| 
 G|---------6-----------4-----------2-----------2---------------| 
 D|---------7-----------6-----------4-----------2---------------| 
 A|-----0-0-----0-0-0-0-----0-0-0-0-----0-0-0-0-0---------------| 
 E|------------------------------------------------3/4----------| 



 e|-------------------------------------------------------------| 
 B|---------5-----------5-----------3---------------------------| 
 G|---------6-----------4-----------2-----------2----4b6r4b6----| 
 D|---------7-----------6-----------4-----------2---------------| 
 A|-----0-0-----0-0-0-0-----0-0-0-0-----0-0-0-0-0---------------| 
 E|-------------------------------------------------------------| 



 e|-------------------------------------------------------------| 
 B|---------5-----------5-----------3---------------------------| 
 G|---------6-----------4-----------2-----------2---------------| 
 D|---------7-----------6-----------4-----------2---------------| 
 A|-----0-0-----0-0-0-0-----0-0-0-0-----0-0-0-0-0---------------| 
 E|------------------------------------------------3/4----------| 



 e|-------------------------------------------------------------| 
 B|---------5-----------5-----------3---------------------------| 
 G|---------6-----------4-----------2-----------2---------------| 
 D|---------7-----------6-----------4-----------2---------------| 
 A|-----0-0-----0-0-0-0-----0-0-0-0-----0-0-0-0-0---------------| 
 E|------------------------------------------------3/4----------| 



 e|-------------------------------------------------------------| 
 B|---------5-----------5-----------3---------------------------| 
 G|---------6-----------4-----------2-----------2---------------| 
 D|---------7-----------6-----------4-----------2---------------| 
 A|-----0-0-----0-0-0-0-----0-0-0-0-----0-0-0-0-0---------------| 
 E|------------------------------------------------3/4----------| 



 e|-------------------------------------------------------------| 
 B|---------5-----------5-----------3---------------------------| 
 G|---------6-----------4-----------2-----------2----4b6r4b6----| 
 D|---------7-----------6-----------4-----------2---------------| 
 A|-----0-0-----0-0-0-0-----0-0-0-0-----0-0-0-0-0---------------| 
 E|-------------------------------------------------------------| 





 e|-------------------------------------------------------------| 
 B|---------5-----------5-----------3---------------------------| 
 G|---------6-----------4-----------2-----------2---------------| 
 D|---------7-----------6-----------4-----------2---------------| 
 A|-----0-0-----0-0-0-0-----0-0-0-0-----0-0-0-0-0---------------| 
 E|------------------------------------------------3/4----------| 



 e|-------------------------------------------------------------| 
 B|---------5-----------5-----------3---------------------------| 
 G|---------6-----------4-----------2---------------------------| 
 D|---------7-----------6-----------4-----------2---------------| 
 A|-----0-0-----0-0-0-0-----0-0-0-0-------------0---------------| 
 E|-------------------------------------2--4--------------------| 





 REFRÃO 1 (INTEIRO) 



 e|-------------------------------------5(HA)-------------------| 
 B|-------------------------------7(HA)-------------------------| 
 G|-------------------------5(HA)-------------------------------| 
 D|----------------7--5(HA)----------------------------------7--| 
 A|-4--2--4--------5--------------------------4--2--4--------5--| 
 E|-2--0--2--2--4-----------------------------2--0--2--2--4-----| 



 e|-------------------------------------------------------------| 
 B|---------------2-5p2-4p2-3p2---------------------------------| 
 G|------------4b6-------------4p2h4p2--------------------------| 
 D|---2-2----9------------------------4p2h4p2-------------------| 
 A|/\-0-0----7-------------------------------4p2h4p2-2h4p2h4p2--| 
 E|-------2h4---------------------------------------5---------5b| 



 e|------------------------------------------------------0------| 
 B|---------------------------------------------------3--0------| 
 G|---------------------------------------------------2--1------| 
 D|-2-2-----9---------------2-------------------------0---------| 
 A|-0-0-----7----4-2-4------0------2------4-2-4-----------------| 
 E|-----2h4---/\-2-0-2-2-4-----4-2-0-2-4--2-0-2---2-4-----------| 





 VERSO 2  (CLICHÊS) 




  
 e|-------------------------------------------------------------| 
 B|---------5-----------5-----------3---------------------------| 
 G|---------6-----------4-----------2-----------2----4b6r4b6----| 
 D|---------7-----------6-----------4-----------2---------------| 
 A|-----0-0-----0-0-0-0-----0-0-0-0-----0-0-0-0-0---------------| 
 E|-------------------------------------------------------------| 



 e|-------------------------------------------------------------| 
 B|-----5---------5---------3-----------------------------------| 
 G|-----6---------4---------2--2h4p2h4p2h4p2h4p2h4p2h4p2h4p2----| 
 D|-----7---------6---------4-----------------------------------| 
 A|-0-0---0-0-0-0---0-0-0-0-------------------------------------| 
 E|-------------------------------------------------------------| 




 REFRÃO 2  (CLICHÊS) 





 e|-------------------------------------5(HA)-------------------| 
 B|-------------------------------5(HA)-------------------------| 
 G|-------------------------5(HA)-------------------------------| 
 D|----------------7--5(HA)----------------------------------7--| 
 A|-4--2--4--------5--------------------------4--2--4--------5--| 
 E|-2--0--2--2--4-----------------------------2--0--2--2--4-----| 



 e|--------------8p5--9p6--10p7--11p8--12p9---13p10---14p11-----| 
 B|-----------------6----7-----8-----9-----10------11------12---| 
 G|-------------------------------------------------------------| 
 D|----2-2-----9------------------------------------------------| 
 A|-/\-0-0-----7------------------------------------------------| 
 E|--------2h4--------------------------------------------------| 



 e|--15p12---16p13---17pp14---18\-------------------------------| 
 B|-------13------14-------15-----------------------------------| 
 G|-------------------------------------------------------------| 
 D|-------------------------------------------------------------| 
 A|-------------------------------------------------------------| 
 E|-------------------------------------------------------------| 




 PRÉ-SOLO 




 e|---------------------------------0-0-------------------------| 
 B|----------------------------3-3--0-0-------------------------| 
 G|-11-11---------------11-11--2-2--1-1--11-11------------------| 
 D|-11-11--2------------11-11--0-0-------11-11--2---------------| 
 A|-9--9---0-------2----9--9-------------9--9---0-------2-------| 
 E|----------4--2--0--4---------------------------4--2--0--4----| 



 e|---------------0-0-------------------------------------------| 
 B|----------3-3--0-0-------------------------------------------| 
 G|--11-11---2-2--1-1-------------------------------------------| 
 D|--11-11---0-0------------------------------------------------| 
 A|--9--9-------------------------------------------------------| 
 E|-------------------------------------------------------------| 



 SOLO 




 e|-------------------------------------------------------------| 
 B|14t7h10p7h10p7--14t7h10p7h10p7--14t7h10p7h10p7-14t7h10p7h10p7| 
 G|-------------------------------------------------------------| 
 D|-------------------------------------------------------------| 
 A|-------------------------------------------------------------| 
 E|-------------------------------------------------------------| 



 e|-------------------------------------------------------------| 
 B|15t7h10p7h10p7--15t7h10p7h10p7--15t7h10p7h10p7-15t7h10p7h10p7| 
 G|-------------------------------------------------------------| 
 D|-------------------------------------------------------------| 
 A|-------------------------------------------------------------| 
 E|-------------------------------------------------------------| 



 e|-------------------------------------------------------------| 
 B|h12p7h12p7h12p7h12p7---h10p7h10p7h10p7h10p7------10----------| 
 G|--------------------------------------------9b11----9b11-----| 
 D|-------------------------------------------------------------| 
 A|-------------------------------------------------------------| 
 E|-------------------------------------------------------------| 



 e|--/17-16-14--------14-16-17-17b19--14h17p14----14------------| 
 B|------------17b19---------------------------17----17--15p14--| 
 G|-------------------------------------------------------------| 
 D|-------------------------------------------------------------| 
 A|-------------------------------------------------------------| 
 E|-------------------------------------------------------------| 



 e|--------------------------------------------------------14---| 
 B|-15p14-------------------------17----------------14h17-------| 
 G|-------17p14-16p14----14--16b18--18r16-14--14h16-------------| 
 D|-------------------16----------------------------------------| 
 A|-------------------------------------------------------------| 
 E|-------------------------------------------------------------| 



 e|-----17p14h17p14h17p14h17p14h17p14h17p14--h19p16h19p16-------| 
 B|-------------------------------------------------------------| 
 G|-------------------------------------------------------------| 
 D|-------------------------------------------------------------| 
 A|-------------------------------------------------------------| 
 E|-------------------------------------------------------------| 



 e|-----h21p17h21p17h21p17h21p17h21p17h21p17h21p17h21p17--------| 
 B|-------------------------------------------------------------| 
 G|-------------------------------------------------------------| 
 D|-------------------------------------------------------------| 
 A|-------------------------------------------------------------| 
 E|-------------------------------------------------------------| 



 e|-h19p16h19p16h19p16h19p16--h15p14h15p14h15p14h15p14-------17-| 
 B|----------------------------------------------------17b19----| 
 G|-------------------------------------------------------------| 
 D|-------------------------------------------------------------| 
 A|-------------------------------------------------------------| 
 E|-------------------------------------------------------------| 



 e|-------------------------------------------------------------| 
 B|-17b19r-14-----------14--------14--------14-------14---------| 
 G|----------16-14--------16-14-----16-14-----16-14----16-14----| 
 D|---------------16-14--------16--------16--------16-------16--| 
 A|-------------------------------------------------------------| 
 E|-------------------------------------------------------------| 



 e|-----------------------------------------------14h17-16p14---| 
 B|----------------------------------------14p12----------------| 
 G|-13-16-13h16p13---16---------------14h16---------------------| 
 D|----------------16----------14h16----------------------------| 
 A|---------------------14h16-----------------------------------| 
 E|-------------------------------------------------------------| 



 e|--19p17-19p17--19b21-----------------------------------------| 
 B|-------------------------------------------------------------| 
 G|-------------------------------------------------------------| 
 D|-------------------------------------------------------------| 
 A|-------------------------------------------------------------| 
 E|-------------------------------------------------------------| 




 VERSO 3 (CLICHÊS) 



 e|-------------------------------------------------------------| 
 B|---------5-----------5-----------3---------------------------| 
 G|---------6-----------4-----------2-----------2---------------| 
 D|---------7-----------6-----------4-----------2---------------| 
 A|-----0-0-----0-0-0-0-----0-0-0-0-----0-0-0-0-0---------------| 
 E|------------------------------------------------3/4----------| 




  
 e|---------------------------------------9/10-10/12\10\9-------| 
 B|---------5-----------5-----------3----10/12-12/14\12\10------| 
 G|---------6-----------4-----------2---------------------------| 
 D|---------7-----------6-----------4---------------------------| 
 A|-----0-0-----0-0-0-0-----0-0-0-0-----------------------------| 
 E|-------------------------------------------------------------| 



 REFRÃO 3  (CLICHÊS) 




 e|--------------------------------------------------------10\--| 
 B|-------------------------------7(HA)-------------/12b14------| 
 G|-------------------------5(HA)-------------------------------| 
 D|----------------7--5(HA)-----------------------7-------------| 
 A|-4--2--4--------5--------------------4-2-4-----5-------------| 
 E|-2--0--2--2--4-----------------------2-0-2-2-4---------------| 



 e|-------------17b18-14-------14-------------------------------| 
 B|----------------------17b19----17p14-16p14----14-------------| 
 G|-------------------------------------------16----16p14-16p14-| 
 D|---2-2----9--------------------------------------------------| 
 A|/\-0-0----7--------------------------------------------------| 
 E|-------2h4---------------------------------------------------| 




 e|-------------------------------------------------------------| 
 B|-------------------------------------------------------------| 
 G|-------------------------------------------------------------| 
 D|--16p14-16p14------------------------------------------------| 
 A|---------------16p14-16p14----14b16--------------------------| 
 E|---------------------------15--------------------------------| 



	  

Search Paypal
auto scroll beats size up size down change color hide chords drawings
tab show chords e-chords YouTube Clip e-chords hide all tabs e-chords go to top tab